ISO-10303-21;
HEADER;
FILE_DESCRIPTION (( 'STEP AP203' ),
    '1' );
FILE_NAME ('ba1f.STEP',
    '2023-02-12T12:32:47',
    ( '' ),
    ( '' ),
    'SwSTEP 2.0',
    'SolidWorks 2019',
    '' );
FILE_SCHEMA (( 'CONFIG_CONTROL_DESIGN' ));
ENDSEC;

DATA;
#1 = DIRECTION ( 'NONE',  ( 0.000000000000000000, 0.000000000000000000, 1.000000000000000000 ) ) ;
#2 = MECHANICAL_CONTEXT ( 'NONE', #241, 'mechanical' ) ;
#3 = CIRCLE ( 'NONE', #97, 4.000000000000000000 ) ;
#4 = DIRECTION ( 'NONE',  ( 0.000000000000000000, 0.000000000000000000, 1.000000000000000000 ) ) ;
#5 = CC_DESIGN_SECURITY_CLASSIFICATION ( #212, ( #148 ) ) ;
#6 = DATE_AND_TIME ( #190, #237 ) ;
#7 = EDGE_LOOP ( 'NONE', ( #187, #41 ) ) ;
#8 = VERTEX_POINT ( 'NONE', #184 ) ;
#9 = CIRCLE ( 'NONE', #195, 4.000000000000000000 ) ;
#10 = PRODUCT ( 'ba1f', 'ba1f', '', ( #2 ) ) ;
#11 = APPROVAL_STATUS ( 'not_yet_approved' ) ;
#12 = CIRCLE ( 'NONE', #109, 4.000000000000000000 ) ;
#13 = PERSON_AND_ORGANIZATION ( #90, #191 ) ;
#14 = DIRECTION ( 'NONE',  ( 0.000000000000000000, 0.000000000000000000, 1.000000000000000000 ) ) ;
#15 = EDGE_CURVE ( 'NONE', #8, #62, #127, .T. ) ;
#16 = VECTOR ( 'NONE', #153, 1000.000000000000000 ) ;
#17 = DIRECTION ( 'NONE',  ( 0.000000000000000000, 0.000000000000000000, 1.000000000000000000 ) ) ;
#18 = PLANE ( 'NONE',  #186 ) ;
#19 = LOCAL_TIME ( 13, 32, 47.00000000000000000, #67 ) ;
#20 = CARTESIAN_POINT ( 'NONE',  ( 0.000000000000000000, 0.000000000000000000, 3.000000000000000000 ) ) ;
#21 = PLANE ( 'NONE',  #75 ) ;
#22 = APPLICATION_PROTOCOL_DEFINITION ( 'international standard', 'config_control_design', 1994, #181 ) ;
#23 = ORIENTED_EDGE ( 'NONE', *, *, #164, .F. ) ;
#24 = CARTESIAN_POINT ( 'NONE',  ( 0.000000000000000000, 0.000000000000000000, 3.000000000000000000 ) ) ;
#25 = CARTESIAN_POINT ( 'NONE',  ( 0.000000000000000000, 0.000000000000000000, 400.0000000000000000 ) ) ;
#26 = DIRECTION ( 'NONE',  ( 1.000000000000000000, 0.000000000000000000, -0.000000000000000000 ) ) ;
#27 = AXIS2_PLACEMENT_3D ( 'NONE', #102, #4, #87 ) ;
#28 = PERSON_AND_ORGANIZATION ( #90, #191 ) ;
#29 = PERSON_AND_ORGANIZATION ( #90, #191 ) ;
#30 = PERSON_AND_ORGANIZATION_ROLE ( 'creator' ) ;
#31 = DIRECTION ( 'NONE',  ( 1.000000000000000000, 0.000000000000000000, -0.000000000000000000 ) ) ;
#32 = ADVANCED_FACE ( 'NONE', ( #255, #158 ), #21, .T. ) ;
#33 = CALENDAR_DATE ( 2023, 12, 2 ) ;
#34 = EDGE_CURVE ( 'NONE', #129, #165, #12, .T. ) ;
#35 = UNCERTAINTY_MEASURE_WITH_UNIT (LENGTH_MEASURE( 1.000000000000000082E-05 ), #103, 'distance_accuracy_value', 'NONE');
#36 = PLANE ( 'NONE',  #114 ) ;
#37 = AXIS2_PLACEMENT_3D ( 'NONE', #110, #17, #173 ) ;
#38 = CARTESIAN_POINT ( 'NONE',  ( 4.000000000000000000, 4.898587196589412829E-16, 3.000000000000000000 ) ) ;
#39 = EDGE_CURVE ( 'NONE', #48, #166, #176, .T. ) ;
#40 = DIRECTION ( 'NONE',  ( 0.000000000000000000, 0.000000000000000000, 1.000000000000000000 ) ) ;
#41 = ORIENTED_EDGE ( 'NONE', *, *, #39, .F. ) ;
#42 = PERSON_AND_ORGANIZATION ( #90, #191 ) ;
#43 = ORIENTED_EDGE ( 'NONE', *, *, #246, .T. ) ;
#44 = AXIS2_PLACEMENT_3D ( 'NONE', #198, #126, #125 ) ;
#45 = CARTESIAN_POINT ( 'NONE',  ( 2.250000000000000000, 2.755455298081544285E-16, 3.000000000000000000 ) ) ;
#46 = CALENDAR_DATE ( 2023, 12, 2 ) ;
#47 = ORIENTED_EDGE ( 'NONE', *, *, #157, .T. ) ;
#48 = VERTEX_POINT ( 'NONE', #61 ) ;
#49 = CC_DESIGN_PERSON_AND_ORGANIZATION_ASSIGNMENT ( #189, #167, ( #212 ) ) ;
#50 = SECURITY_CLASSIFICATION_LEVEL ( 'unclassified' ) ;
#51 = CC_DESIGN_DATE_AND_TIME_ASSIGNMENT ( #73, #91, ( #212 ) ) ;
#52 = COORDINATED_UNIVERSAL_TIME_OFFSET ( 1, 0, .AHEAD. ) ;
#53 = AXIS2_PLACEMENT_3D ( 'NONE', #84, #1, #243 ) ;
#54 = EDGE_LOOP ( 'NONE', ( #23, #210, #140, #144 ) ) ;
#55 = ORIENTED_EDGE ( 'NONE', *, *, #34, .F. ) ;
#56 = COORDINATED_UNIVERSAL_TIME_OFFSET ( 1, 0, .AHEAD. ) ;
#57 = DIRECTION ( 'NONE',  ( -1.000000000000000000, 0.000000000000000000, 0.000000000000000000 ) ) ;
#58 = CARTESIAN_POINT ( 'NONE',  ( 0.000000000000000000, 0.000000000000000000, 0.000000000000000000 ) ) ;
#59 = ADVANCED_FACE ( 'NONE', ( #247 ), #161, .T. ) ;
#60 = DIRECTION ( 'NONE',  ( 1.000000000000000000, 0.000000000000000000, 0.000000000000000000 ) ) ;
#61 = CARTESIAN_POINT ( 'NONE',  ( 4.000000000000000000, 4.898587196589412829E-16, 0.000000000000000000 ) ) ;
#62 = VERTEX_POINT ( 'NONE', #45 ) ;
#63 = EDGE_CURVE ( 'NONE', #166, #48, #3, .T. ) ;
#64 = CARTESIAN_POINT ( 'NONE',  ( -2.250000000000000000, 0.000000000000000000, 400.0000000000000000 ) ) ;
#65 = DIRECTION ( 'NONE',  ( 0.000000000000000000, 0.000000000000000000, 1.000000000000000000 ) ) ;
#66 = APPROVAL_STATUS ( 'not_yet_approved' ) ;
#67 = COORDINATED_UNIVERSAL_TIME_OFFSET ( 1, 0, .AHEAD. ) ;
#68 = VERTEX_POINT ( 'NONE', #64 ) ;
#69 = APPROVAL_DATE_TIME ( #150, #194 ) ;
#70 = DATE_AND_TIME ( #133, #183 ) ;
#71 = DIRECTION ( 'NONE',  ( -0.000000000000000000, -0.000000000000000000, -1.000000000000000000 ) ) ;
#72 = CARTESIAN_POINT ( 'NONE',  ( -4.000000000000000000, 0.000000000000000000, 3.000000000000000000 ) ) ;
#73 = DATE_AND_TIME ( #33, #223 ) ;
#74 = LINE ( 'NONE', #215, #168 ) ;
#75 = AXIS2_PLACEMENT_3D ( 'NONE', #120, #142, #26 ) ;
#76 = APPROVAL ( #119, 'NEURÈENÝ' ) ;
#77 = CARTESIAN_POINT ( 'NONE',  ( 2.250000000000000000, 2.755455298081544285E-16, 400.0000000000000000 ) ) ;
#78 = APPROVAL_ROLE ( '' ) ;
#79 = MANIFOLD_SOLID_BREP ( 'Pøidat vysunutím3', #240 ) ;
#80 = FACE_OUTER_BOUND ( 'NONE', #171, .T. ) ;
#81 = ORIENTED_EDGE ( 'NONE', *, *, #39, .T. ) ;
#82 = EDGE_CURVE ( 'NONE', #200, #68, #234, .T. ) ;
#83 = PERSON_AND_ORGANIZATION ( #90, #191 ) ;
#84 = CARTESIAN_POINT ( 'NONE',  ( 0.000000000000000000, 0.000000000000000000, 0.000000000000000000 ) ) ;
#85 = DIRECTION ( 'NONE',  ( 0.000000000000000000, 0.000000000000000000, 1.000000000000000000 ) ) ;
#86 = APPROVAL_DATE_TIME ( #202, #76 ) ;
#87 = DIRECTION ( 'NONE',  ( 1.000000000000000000, 0.000000000000000000, 0.000000000000000000 ) ) ;
#88 = ORIENTED_EDGE ( 'NONE', *, *, #34, .T. ) ;
#89 = ORIENTED_EDGE ( 'NONE', *, *, #251, .F. ) ;
#90 = PERSON ( 'NEURÈENÝ', 'NEURÈENÝ', 'NEURÈENÝ', ('NEURÈENÝ'), ('NEURÈENÝ'), ('NEURÈENÝ') ) ;
#91 = DATE_TIME_ROLE ( 'classification_date' ) ;
#92 = DIRECTION ( 'NONE',  ( 1.000000000000000000, 0.000000000000000000, 0.000000000000000000 ) ) ;
#93 = APPROVAL_PERSON_ORGANIZATION ( #208, #194, #149 ) ;
#94 = DIRECTION ( 'NONE',  ( -0.000000000000000000, -0.000000000000000000, -1.000000000000000000 ) ) ;
#95 = PERSON_AND_ORGANIZATION_ROLE ( 'design_owner' ) ;
#96 = DIRECTION ( 'NONE',  ( -0.000000000000000000, -0.000000000000000000, -1.000000000000000000 ) ) ;
#97 = AXIS2_PLACEMENT_3D ( 'NONE', #185, #85, #60 ) ;
#98 = ORIENTED_EDGE ( 'NONE', *, *, #164, .T. ) ;
#99 = CC_DESIGN_PERSON_AND_ORGANIZATION_ASSIGNMENT ( #28, #30, ( #148 ) ) ;
#100 = ORIENTED_EDGE ( 'NONE', *, *, #201, .T. ) ;
#101 = VECTOR ( 'NONE', #94, 1000.000000000000000 ) ;
#102 = CARTESIAN_POINT ( 'NONE',  ( 0.000000000000000000, 0.000000000000000000, 400.0000000000000000 ) ) ;
#103 =( LENGTH_UNIT ( ) NAMED_UNIT ( * ) SI_UNIT ( .MILLI., .METRE. ) );
#104 = EDGE_CURVE ( 'NONE', #68, #200, #229, .T. ) ;
#105 = DIRECTION ( 'NONE',  ( 1.000000000000000000, 0.000000000000000000, 0.000000000000000000 ) ) ;
#106 = CC_DESIGN_APPROVAL ( #76, ( #236 ) ) ;
#107 = ORIENTED_EDGE ( 'NONE', *, *, #146, .F. ) ;
#108 = ADVANCED_FACE ( 'NONE', ( #145 ), #226, .T. ) ;
#109 = AXIS2_PLACEMENT_3D ( 'NONE', #24, #122, #105 ) ;
#110 = CARTESIAN_POINT ( 'NONE',  ( 0.000000000000000000, 0.000000000000000000, 3.000000000000000000 ) ) ;
#111 = APPROVAL_PERSON_ORGANIZATION ( #13, #233, #78 ) ;
#112 = FACE_OUTER_BOUND ( 'NONE', #138, .T. ) ;
#113 = DIRECTION ( 'NONE',  ( 1.000000000000000000, 0.000000000000000000, -0.000000000000000000 ) ) ;
#114 = AXIS2_PLACEMENT_3D ( 'NONE', #58, #115, #113 ) ;
#115 = DIRECTION ( 'NONE',  ( 0.000000000000000000, 0.000000000000000000, 1.000000000000000000 ) ) ;
#116 = LINE ( 'NONE', #253, #156 ) ;
#117 = DIRECTION ( 'NONE',  ( 1.000000000000000000, 0.000000000000000000, 0.000000000000000000 ) ) ;
#118 = CARTESIAN_POINT ( 'NONE',  ( 0.000000000000000000, 0.000000000000000000, 400.0000000000000000 ) ) ;
#119 = APPROVAL_STATUS ( 'not_yet_approved' ) ;
#120 = CARTESIAN_POINT ( 'NONE',  ( 0.000000000000000000, 0.000000000000000000, 3.000000000000000000 ) ) ;
#121 = ADVANCED_FACE ( 'NONE', ( #80 ), #244, .T. ) ;
#122 = DIRECTION ( 'NONE',  ( 0.000000000000000000, 0.000000000000000000, 1.000000000000000000 ) ) ;
#123 = CARTESIAN_POINT ( 'NONE',  ( 0.000000000000000000, 0.000000000000000000, 0.000000000000000000 ) ) ;
#124 = ORIENTED_EDGE ( 'NONE', *, *, #246, .F. ) ;
#125 = DIRECTION ( 'NONE',  ( 1.000000000000000000, 0.000000000000000000, 0.000000000000000000 ) ) ;
#126 = DIRECTION ( 'NONE',  ( 0.000000000000000000, 0.000000000000000000, 1.000000000000000000 ) ) ;
#127 = CIRCLE ( 'NONE', #44, 2.250000000000000000 ) ;
#128 = AXIS2_PLACEMENT_3D ( 'NONE', #139, #219, #57 ) ;
#129 = VERTEX_POINT ( 'NONE', #211 ) ;
#130 = CC_DESIGN_PERSON_AND_ORGANIZATION_ASSIGNMENT ( #83, #95, ( #10 ) ) ;
#131 = APPROVAL_DATE_TIME ( #70, #233 ) ;
#132 = DIRECTION ( 'NONE',  ( -0.000000000000000000, -0.000000000000000000, -1.000000000000000000 ) ) ;
#133 = CALENDAR_DATE ( 2023, 12, 2 ) ;
#134 = AXIS2_PLACEMENT_3D ( 'NONE', #245, #249, #222 ) ;
#135 = CC_DESIGN_APPROVAL ( #233, ( #212 ) ) ;
#136 = CARTESIAN_POINT ( 'NONE',  ( -4.000000000000000000, 0.000000000000000000, 0.000000000000000000 ) ) ;
#137 =( NAMED_UNIT ( * ) PLANE_ANGLE_UNIT ( ) SI_UNIT ( $, .RADIAN. ) );
#138 = EDGE_LOOP ( 'NONE', ( #107, #55, #47, #179 ) ) ;
#139 = CARTESIAN_POINT ( 'NONE',  ( 0.000000000000000000, 0.000000000000000000, 400.0000000000000000 ) ) ;
#140 = ORIENTED_EDGE ( 'NONE', *, *, #251, .T. ) ;
#141 =( GEOMETRIC_REPRESENTATION_CONTEXT ( 3 ) GLOBAL_UNCERTAINTY_ASSIGNED_CONTEXT ( ( #35 ) ) GLOBAL_UNIT_ASSIGNED_CONTEXT ( ( #103, #137, #163 ) ) REPRESENTATION_CONTEXT ( 'NONE', 'WORKASPACE' ) );
#142 = DIRECTION ( 'NONE',  ( 0.000000000000000000, 0.000000000000000000, 1.000000000000000000 ) ) ;
#143 = EDGE_LOOP ( 'NONE', ( #88, #100 ) ) ;
#144 = ORIENTED_EDGE ( 'NONE', *, *, #15, .T. ) ;
#145 = FACE_OUTER_BOUND ( 'NONE', #54, .T. ) ;
#146 = EDGE_CURVE ( 'NONE', #165, #48, #116, .T. ) ;
#147 = ORIENTED_EDGE ( 'NONE', *, *, #146, .T. ) ;
#148 = PRODUCT_DEFINITION_FORMATION_WITH_SPECIFIED_SOURCE ( 'LIBOVOLNÝ', '', #10, .NOT_KNOWN. ) ;
#149 = APPROVAL_ROLE ( '' ) ;
#150 = DATE_AND_TIME ( #228, #19 ) ;
#151 = CIRCLE ( 'NONE', #37, 2.250000000000000000 ) ;
#152 = PERSON_AND_ORGANIZATION_ROLE ( 'design_supplier' ) ;
#153 = DIRECTION ( 'NONE',  ( -0.000000000000000000, -0.000000000000000000, -1.000000000000000000 ) ) ;
#154 = SHAPE_DEFINITION_REPRESENTATION ( #220, #207 ) ;
#155 = CYLINDRICAL_SURFACE ( 'NONE', #162, 4.000000000000000000 ) ;
#156 = VECTOR ( 'NONE', #71, 1000.000000000000000 ) ;
#157 = EDGE_CURVE ( 'NONE', #129, #166, #180, .T. ) ;
#158 = FACE_OUTER_BOUND ( 'NONE', #143, .T. ) ;
#159 = DESIGN_CONTEXT ( 'detailed design', #181, 'design' ) ;
#160 = COORDINATED_UNIVERSAL_TIME_OFFSET ( 1, 0, .AHEAD. ) ;
#161 = CYLINDRICAL_SURFACE ( 'NONE', #134, 4.000000000000000000 ) ;
#162 = AXIS2_PLACEMENT_3D ( 'NONE', #193, #238, #197 ) ;
#163 =( NAMED_UNIT ( * ) SI_UNIT ( $, .STERADIAN. ) SOLID_ANGLE_UNIT ( ) );
#164 = EDGE_CURVE ( 'NONE', #200, #62, #74, .T. ) ;
#165 = VERTEX_POINT ( 'NONE', #38 ) ;
#166 = VERTEX_POINT ( 'NONE', #136 ) ;
#167 = PERSON_AND_ORGANIZATION_ROLE ( 'classification_officer' ) ;
#168 = VECTOR ( 'NONE', #132, 1000.000000000000000 ) ;
#169 = CC_DESIGN_DATE_AND_TIME_ASSIGNMENT ( #6, #172, ( #236 ) ) ;
#170 = CC_DESIGN_APPROVAL ( #194, ( #148 ) ) ;
#171 = EDGE_LOOP ( 'NONE', ( #242, #98, #43, #89 ) ) ;
#172 = DATE_TIME_ROLE ( 'creation_date' ) ;
#173 = DIRECTION ( 'NONE',  ( 1.000000000000000000, 0.000000000000000000, 0.000000000000000000 ) ) ;
#174 = FACE_OUTER_BOUND ( 'NONE', #204, .T. ) ;
#175 = AXIS2_PLACEMENT_3D ( 'NONE', #118, #96, #182 ) ;
#176 = CIRCLE ( 'NONE', #53, 4.000000000000000000 ) ;
#177 = ADVANCED_FACE ( 'NONE', ( #112 ), #155, .T. ) ;
#178 = PRODUCT_RELATED_PRODUCT_CATEGORY ( 'detail', '', ( #10 ) ) ;
#179 = ORIENTED_EDGE ( 'NONE', *, *, #63, .T. ) ;
#180 = LINE ( 'NONE', #72, #16 ) ;
#181 = APPLICATION_CONTEXT ( 'configuration controlled 3d designs of mechanical parts and assemblies' ) ;
#182 = DIRECTION ( 'NONE',  ( -1.000000000000000000, 0.000000000000000000, 0.000000000000000000 ) ) ;
#183 = LOCAL_TIME ( 13, 32, 47.00000000000000000, #56 ) ;
#184 = CARTESIAN_POINT ( 'NONE',  ( -2.250000000000000000, 0.000000000000000000, 3.000000000000000000 ) ) ;
#185 = CARTESIAN_POINT ( 'NONE',  ( 0.000000000000000000, 0.000000000000000000, 0.000000000000000000 ) ) ;
#186 = AXIS2_PLACEMENT_3D ( 'NONE', #214, #232, #31 ) ;
#187 = ORIENTED_EDGE ( 'NONE', *, *, #63, .F. ) ;
#188 = CC_DESIGN_PERSON_AND_ORGANIZATION_ASSIGNMENT ( #230, #152, ( #148 ) ) ;
#189 = PERSON_AND_ORGANIZATION ( #90, #191 ) ;
#190 = CALENDAR_DATE ( 2023, 12, 2 ) ;
#191 = ORGANIZATION ( 'NEURÈENÝ', 'NEURÈENÝ', '' ) ;
#192 = PERSON_AND_ORGANIZATION_ROLE ( 'creator' ) ;
#193 = CARTESIAN_POINT ( 'NONE',  ( 0.000000000000000000, 0.000000000000000000, 3.000000000000000000 ) ) ;
#194 = APPROVAL ( #66, 'NEURÈENÝ' ) ;
#195 = AXIS2_PLACEMENT_3D ( 'NONE', #20, #14, #92 ) ;
#196 = CARTESIAN_POINT ( 'NONE',  ( -2.250000000000000000, 0.000000000000000000, 400.0000000000000000 ) ) ;
#197 = DIRECTION ( 'NONE',  ( -1.000000000000000000, 0.000000000000000000, 0.000000000000000000 ) ) ;
#198 = CARTESIAN_POINT ( 'NONE',  ( 0.000000000000000000, 0.000000000000000000, 3.000000000000000000 ) ) ;
#199 = APPROVAL_ROLE ( '' ) ;
#200 = VERTEX_POINT ( 'NONE', #77 ) ;
#201 = EDGE_CURVE ( 'NONE', #165, #129, #9, .T. ) ;
#202 = DATE_AND_TIME ( #46, #248 ) ;
#203 = DIRECTION ( 'NONE',  ( 1.000000000000000000, 0.000000000000000000, 0.000000000000000000 ) ) ;
#204 = EDGE_LOOP ( 'NONE', ( #205, #231 ) ) ;
#205 = ORIENTED_EDGE ( 'NONE', *, *, #104, .T. ) ;
#206 = ADVANCED_FACE ( 'NONE', ( #174 ), #18, .T. ) ;
#207 = ADVANCED_BREP_SHAPE_REPRESENTATION ( 'ba1f', ( #79, #227 ), #141 ) ;
#208 = PERSON_AND_ORGANIZATION ( #90, #191 ) ;
#209 = APPROVAL_PERSON_ORGANIZATION ( #42, #76, #199 ) ;
#210 = ORIENTED_EDGE ( 'NONE', *, *, #104, .F. ) ;
#211 = CARTESIAN_POINT ( 'NONE',  ( -4.000000000000000000, 0.000000000000000000, 3.000000000000000000 ) ) ;
#212 = SECURITY_CLASSIFICATION ( '', '', #50 ) ;
#213 = CC_DESIGN_PERSON_AND_ORGANIZATION_ASSIGNMENT ( #29, #192, ( #236 ) ) ;
#214 = CARTESIAN_POINT ( 'NONE',  ( 0.000000000000000000, 0.000000000000000000, 400.0000000000000000 ) ) ;
#215 = CARTESIAN_POINT ( 'NONE',  ( 2.250000000000000000, 2.755455298081544285E-16, 400.0000000000000000 ) ) ;
#216 = AXIS2_PLACEMENT_3D ( 'NONE', #25, #65, #203 ) ;
#217 = ORIENTED_EDGE ( 'NONE', *, *, #201, .F. ) ;
#218 = EDGE_LOOP ( 'NONE', ( #217, #147, #81, #225 ) ) ;
#219 = DIRECTION ( 'NONE',  ( -0.000000000000000000, -0.000000000000000000, -1.000000000000000000 ) ) ;
#220 = PRODUCT_DEFINITION_SHAPE ( 'NONE', 'NONE',  #236 ) ;
#221 = EDGE_LOOP ( 'NONE', ( #254, #124 ) ) ;
#222 = DIRECTION ( 'NONE',  ( -1.000000000000000000, 0.000000000000000000, 0.000000000000000000 ) ) ;
#223 = LOCAL_TIME ( 13, 32, 47.00000000000000000, #250 ) ;
#224 = APPLICATION_PROTOCOL_DEFINITION ( 'international standard', 'config_control_design', 1994, #241 ) ;
#225 = ORIENTED_EDGE ( 'NONE', *, *, #157, .F. ) ;
#226 = CYLINDRICAL_SURFACE ( 'NONE', #175, 2.250000000000000000 ) ;
#227 = AXIS2_PLACEMENT_3D ( 'NONE', #123, #40, #117 ) ;
#228 = CALENDAR_DATE ( 2023, 12, 2 ) ;
#229 = CIRCLE ( 'NONE', #27, 2.250000000000000000 ) ;
#230 = PERSON_AND_ORGANIZATION ( #90, #191 ) ;
#231 = ORIENTED_EDGE ( 'NONE', *, *, #82, .T. ) ;
#232 = DIRECTION ( 'NONE',  ( 0.000000000000000000, 0.000000000000000000, 1.000000000000000000 ) ) ;
#233 = APPROVAL ( #11, 'NEURÈENÝ' ) ;
#234 = CIRCLE ( 'NONE', #216, 2.250000000000000000 ) ;
#235 = ADVANCED_FACE ( 'NONE', ( #239 ), #36, .F. ) ;
#236 = PRODUCT_DEFINITION ( 'NEZNÁMÝ', '', #148, #159 ) ;
#237 = LOCAL_TIME ( 13, 32, 47.00000000000000000, #52 ) ;
#238 = DIRECTION ( 'NONE',  ( -0.000000000000000000, -0.000000000000000000, -1.000000000000000000 ) ) ;
#239 = FACE_OUTER_BOUND ( 'NONE', #7, .T. ) ;
#240 = CLOSED_SHELL ( 'NONE', ( #121, #59, #177, #32, #235, #108, #206 ) ) ;
#241 = APPLICATION_CONTEXT ( 'configuration controlled 3d designs of mechanical parts and assemblies' ) ;
#242 = ORIENTED_EDGE ( 'NONE', *, *, #82, .F. ) ;
#243 = DIRECTION ( 'NONE',  ( 1.000000000000000000, 0.000000000000000000, 0.000000000000000000 ) ) ;
#244 = CYLINDRICAL_SURFACE ( 'NONE', #128, 2.250000000000000000 ) ;
#245 = CARTESIAN_POINT ( 'NONE',  ( 0.000000000000000000, 0.000000000000000000, 3.000000000000000000 ) ) ;
#246 = EDGE_CURVE ( 'NONE', #62, #8, #151, .T. ) ;
#247 = FACE_OUTER_BOUND ( 'NONE', #218, .T. ) ;
#248 = LOCAL_TIME ( 13, 32, 47.00000000000000000, #160 ) ;
#249 = DIRECTION ( 'NONE',  ( -0.000000000000000000, -0.000000000000000000, -1.000000000000000000 ) ) ;
#250 = COORDINATED_UNIVERSAL_TIME_OFFSET ( 1, 0, .AHEAD. ) ;
#251 = EDGE_CURVE ( 'NONE', #68, #8, #252, .T. ) ;
#252 = LINE ( 'NONE', #196, #101 ) ;
#253 = CARTESIAN_POINT ( 'NONE',  ( 4.000000000000000000, 4.898587196589412829E-16, 3.000000000000000000 ) ) ;
#254 = ORIENTED_EDGE ( 'NONE', *, *, #15, .F. ) ;
#255 = FACE_BOUND ( 'NONE', #221, .T. ) ;
ENDSEC;
END-ISO-10303-21;
