ISO-10303-21;
HEADER;
FILE_DESCRIPTION (( 'STEP AP203' ),
    '1' );
FILE_NAME ('bc1f.STEP',
    '2023-02-12T10:34:01',
    ( '' ),
    ( '' ),
    'SwSTEP 2.0',
    'SolidWorks 2019',
    '' );
FILE_SCHEMA (( 'CONFIG_CONTROL_DESIGN' ));
ENDSEC;

DATA;
#1 = PERSON_AND_ORGANIZATION_ROLE ( 'design_supplier' ) ;
#2 = ORIENTED_EDGE ( 'NONE', *, *, #13, .F. ) ;
#3 = CALENDAR_DATE ( 2023, 12, 2 ) ;
#4 = COORDINATED_UNIVERSAL_TIME_OFFSET ( 1, 0, .AHEAD. ) ;
#5 = CC_DESIGN_PERSON_AND_ORGANIZATION_ASSIGNMENT ( #91, #6, ( #52 ) ) ;
#6 = PERSON_AND_ORGANIZATION_ROLE ( 'creator' ) ;
#7 = PLANE ( 'NONE',  #54 ) ;
#8 = ADVANCED_FACE ( 'NONE', ( #226 ), #61, .T. ) ;
#9 = MANIFOLD_SOLID_BREP ( 'Pøidat vysunutím3', #99 ) ;
#10 = AXIS2_PLACEMENT_3D ( 'NONE', #73, #207, #161 ) ;
#11 = LINE ( 'NONE', #163, #137 ) ;
#12 = SECURITY_CLASSIFICATION_LEVEL ( 'unclassified' ) ;
#13 = EDGE_CURVE ( 'NONE', #75, #191, #63, .T. ) ;
#14 = EDGE_CURVE ( 'NONE', #153, #150, #172, .T. ) ;
#15 = EDGE_LOOP ( 'NONE', ( #114, #195 ) ) ;
#16 = APPLICATION_PROTOCOL_DEFINITION ( 'international standard', 'config_control_design', 1994, #97 ) ;
#17 = DIRECTION ( 'NONE',  ( -0.000000000000000000, -0.000000000000000000, -1.000000000000000000 ) ) ;
#18 = CC_DESIGN_APPROVAL ( #210, ( #200 ) ) ;
#19 = DIRECTION ( 'NONE',  ( -0.000000000000000000, -0.000000000000000000, -1.000000000000000000 ) ) ;
#20 = VECTOR ( 'NONE', #19, 1000.000000000000000 ) ;
#21 = CARTESIAN_POINT ( 'NONE',  ( 12.00000000000000178, 1.469576158976824144E-15, 7.000000000000000000 ) ) ;
#22 = PERSON_AND_ORGANIZATION ( #217, #79 ) ;
#23 = PERSON_AND_ORGANIZATION ( #217, #79 ) ;
#24 = ORIENTED_EDGE ( 'NONE', *, *, #220, .F. ) ;
#25 = VECTOR ( 'NONE', #187, 1000.000000000000000 ) ;
#26 = CYLINDRICAL_SURFACE ( 'NONE', #197, 12.00000000000000178 ) ;
#27 = PRODUCT_DEFINITION_FORMATION_WITH_SPECIFIED_SOURCE ( 'LIBOVOLNÝ', '', #230, .NOT_KNOWN. ) ;
#28 = CARTESIAN_POINT ( 'NONE',  ( 12.00000000000000178, 1.469576158976824144E-15, 7.000000000000000000 ) ) ;
#29 = APPROVAL_PERSON_ORGANIZATION ( #98, #168, #179 ) ;
#30 = EDGE_CURVE ( 'NONE', #75, #106, #53, .T. ) ;
#31 = FACE_OUTER_BOUND ( 'NONE', #38, .T. ) ;
#32 = CARTESIAN_POINT ( 'NONE',  ( 0.000000000000000000, 0.000000000000000000, 800.0000000000000000 ) ) ;
#33 = AXIS2_PLACEMENT_3D ( 'NONE', #140, #241, #199 ) ;
#34 = ORIENTED_EDGE ( 'NONE', *, *, #174, .T. ) ;
#35 = SHAPE_DEFINITION_REPRESENTATION ( #109, #181 ) ;
#36 = DIRECTION ( 'NONE',  ( 1.000000000000000000, 0.000000000000000000, 0.000000000000000000 ) ) ;
#37 = DIRECTION ( 'NONE',  ( 0.000000000000000000, 0.000000000000000000, 1.000000000000000000 ) ) ;
#38 = EDGE_LOOP ( 'NONE', ( #108, #34, #87, #2 ) ) ;
#39 = ORIENTED_EDGE ( 'NONE', *, *, #110, .F. ) ;
#40 = CARTESIAN_POINT ( 'NONE',  ( 0.000000000000000000, 0.000000000000000000, 7.000000000000000000 ) ) ;
#41 = APPROVAL ( #235, 'NEURÈENÝ' ) ;
#42 = DIRECTION ( 'NONE',  ( 1.000000000000000000, 0.000000000000000000, -0.000000000000000000 ) ) ;
#43 = DATE_AND_TIME ( #139, #245 ) ;
#44 = EDGE_CURVE ( 'NONE', #150, #185, #156, .T. ) ;
#45 = DIRECTION ( 'NONE',  ( -1.000000000000000000, 0.000000000000000000, 0.000000000000000000 ) ) ;
#46 = COORDINATED_UNIVERSAL_TIME_OFFSET ( 1, 0, .AHEAD. ) ;
#47 = FACE_OUTER_BOUND ( 'NONE', #167, .T. ) ;
#48 = VECTOR ( 'NONE', #65, 1000.000000000000000 ) ;
#49 = FACE_OUTER_BOUND ( 'NONE', #15, .T. ) ;
#50 = AXIS2_PLACEMENT_3D ( 'NONE', #173, #208, #36 ) ;
#51 = CALENDAR_DATE ( 2023, 12, 2 ) ;
#52 = PRODUCT_DEFINITION ( 'NEZNÁMÝ', '', #27, #214 ) ;
#53 = CIRCLE ( 'NONE', #86, 9.000000000000000000 ) ;
#54 = AXIS2_PLACEMENT_3D ( 'NONE', #101, #102, #84 ) ;
#55 = CC_DESIGN_PERSON_AND_ORGANIZATION_ASSIGNMENT ( #78, #1, ( #27 ) ) ;
#56 =( LENGTH_UNIT ( ) NAMED_UNIT ( * ) SI_UNIT ( .MILLI., .METRE. ) );
#57 = CIRCLE ( 'NONE', #85, 12.00000000000000178 ) ;
#58 = DIRECTION ( 'NONE',  ( -1.000000000000000000, 0.000000000000000000, 0.000000000000000000 ) ) ;
#59 = COORDINATED_UNIVERSAL_TIME_OFFSET ( 1, 0, .AHEAD. ) ;
#60 = LOCAL_TIME ( 11, 34, 1.000000000000000000, #4 ) ;
#61 = CYLINDRICAL_SURFACE ( 'NONE', #122, 9.000000000000000000 ) ;
#62 =( NAMED_UNIT ( * ) PLANE_ANGLE_UNIT ( ) SI_UNIT ( $, .RADIAN. ) );
#63 = LINE ( 'NONE', #232, #20 ) ;
#64 = CC_DESIGN_PERSON_AND_ORGANIZATION_ASSIGNMENT ( #224, #254, ( #200 ) ) ;
#65 = DIRECTION ( 'NONE',  ( -0.000000000000000000, -0.000000000000000000, -1.000000000000000000 ) ) ;
#66 = AXIS2_PLACEMENT_3D ( 'NONE', #149, #133, #250 ) ;
#67 = DIRECTION ( 'NONE',  ( 1.000000000000000000, 0.000000000000000000, 0.000000000000000000 ) ) ;
#68 = CARTESIAN_POINT ( 'NONE',  ( 0.000000000000000000, 0.000000000000000000, 800.0000000000000000 ) ) ;
#69 = PERSON_AND_ORGANIZATION ( #217, #79 ) ;
#70 = FACE_OUTER_BOUND ( 'NONE', #234, .T. ) ;
#71 = CARTESIAN_POINT ( 'NONE',  ( 9.000000000000000000, 1.102182119232617714E-15, 7.000000000000000000 ) ) ;
#72 = PRODUCT_RELATED_PRODUCT_CATEGORY ( 'detail', '', ( #230 ) ) ;
#73 = CARTESIAN_POINT ( 'NONE',  ( 0.000000000000000000, 0.000000000000000000, 0.000000000000000000 ) ) ;
#74 =( NAMED_UNIT ( * ) SI_UNIT ( $, .STERADIAN. ) SOLID_ANGLE_UNIT ( ) );
#75 = VERTEX_POINT ( 'NONE', #138 ) ;
#76 = FACE_OUTER_BOUND ( 'NONE', #112, .T. ) ;
#77 = ORIENTED_EDGE ( 'NONE', *, *, #30, .F. ) ;
#78 = PERSON_AND_ORGANIZATION ( #217, #79 ) ;
#79 = ORGANIZATION ( 'NEURÈENÝ', 'NEURÈENÝ', '' ) ;
#80 = PLANE ( 'NONE',  #184 ) ;
#81 = CIRCLE ( 'NONE', #247, 9.000000000000000000 ) ;
#82 = CALENDAR_DATE ( 2023, 12, 2 ) ;
#83 = ADVANCED_FACE ( 'NONE', ( #255 ), #213, .T. ) ;
#84 = DIRECTION ( 'NONE',  ( 1.000000000000000000, 0.000000000000000000, -0.000000000000000000 ) ) ;
#85 = AXIS2_PLACEMENT_3D ( 'NONE', #136, #212, #67 ) ;
#86 = AXIS2_PLACEMENT_3D ( 'NONE', #134, #211, #132 ) ;
#87 = ORIENTED_EDGE ( 'NONE', *, *, #110, .T. ) ;
#88 = LOCAL_TIME ( 11, 34, 1.000000000000000000, #135 ) ;
#89 = DIRECTION ( 'NONE',  ( 1.000000000000000000, 0.000000000000000000, 0.000000000000000000 ) ) ;
#90 = VERTEX_POINT ( 'NONE', #219 ) ;
#91 = PERSON_AND_ORGANIZATION ( #217, #79 ) ;
#92 = CC_DESIGN_DATE_AND_TIME_ASSIGNMENT ( #43, #159, ( #52 ) ) ;
#93 = ORIENTED_EDGE ( 'NONE', *, *, #30, .T. ) ;
#94 = PERSON_AND_ORGANIZATION_ROLE ( 'design_owner' ) ;
#95 = LOCAL_TIME ( 11, 34, 1.000000000000000000, #119 ) ;
#96 = CARTESIAN_POINT ( 'NONE',  ( 0.000000000000000000, 0.000000000000000000, 7.000000000000000000 ) ) ;
#97 = APPLICATION_CONTEXT ( 'configuration controlled 3d designs of mechanical parts and assemblies' ) ;
#98 = PERSON_AND_ORGANIZATION ( #217, #79 ) ;
#99 = CLOSED_SHELL ( 'NONE', ( #127, #147, #83, #244, #107, #8, #158 ) ) ;
#100 = APPROVAL_STATUS ( 'not_yet_approved' ) ;
#101 = CARTESIAN_POINT ( 'NONE',  ( 0.000000000000000000, 0.000000000000000000, 800.0000000000000000 ) ) ;
#102 = DIRECTION ( 'NONE',  ( 0.000000000000000000, 0.000000000000000000, 1.000000000000000000 ) ) ;
#103 = ORIENTED_EDGE ( 'NONE', *, *, #251, .T. ) ;
#104 = ORIENTED_EDGE ( 'NONE', *, *, #186, .F. ) ;
#105 = CIRCLE ( 'NONE', #33, 12.00000000000000178 ) ;
#106 = VERTEX_POINT ( 'NONE', #237 ) ;
#107 = ADVANCED_FACE ( 'NONE', ( #49 ), #80, .F. ) ;
#108 = ORIENTED_EDGE ( 'NONE', *, *, #166, .F. ) ;
#109 = PRODUCT_DEFINITION_SHAPE ( 'NONE', 'NONE',  #52 ) ;
#110 = EDGE_CURVE ( 'NONE', #176, #191, #81, .T. ) ;
#111 = CARTESIAN_POINT ( 'NONE',  ( 0.000000000000000000, 0.000000000000000000, 800.0000000000000000 ) ) ;
#112 = EDGE_LOOP ( 'NONE', ( #190, #228 ) ) ;
#113 = FACE_BOUND ( 'NONE', #165, .T. ) ;
#114 = ORIENTED_EDGE ( 'NONE', *, *, #251, .F. ) ;
#115 = DATE_AND_TIME ( #192, #88 ) ;
#116 = APPROVAL_DATE_TIME ( #118, #168 ) ;
#117 = DIRECTION ( 'NONE',  ( 0.000000000000000000, 0.000000000000000000, 1.000000000000000000 ) ) ;
#118 = DATE_AND_TIME ( #82, #60 ) ;
#119 = COORDINATED_UNIVERSAL_TIME_OFFSET ( 1, 0, .AHEAD. ) ;
#120 = CARTESIAN_POINT ( 'NONE',  ( 0.000000000000000000, 0.000000000000000000, 0.000000000000000000 ) ) ;
#121 = CC_DESIGN_PERSON_AND_ORGANIZATION_ASSIGNMENT ( #69, #177, ( #27 ) ) ;
#122 = AXIS2_PLACEMENT_3D ( 'NONE', #111, #17, #58 ) ;
#123 = ORIENTED_EDGE ( 'NONE', *, *, #225, .T. ) ;
#124 = ORIENTED_EDGE ( 'NONE', *, *, #166, .T. ) ;
#125 = CIRCLE ( 'NONE', #131, 9.000000000000000000 ) ;
#126 = LOCAL_TIME ( 11, 34, 1.000000000000000000, #59 ) ;
#127 = ADVANCED_FACE ( 'NONE', ( #31 ), #180, .T. ) ;
#128 = APPROVAL_DATE_TIME ( #223, #210 ) ;
#129 = DIRECTION ( 'NONE',  ( 0.000000000000000000, 0.000000000000000000, 1.000000000000000000 ) ) ;
#130 = APPROVAL_STATUS ( 'not_yet_approved' ) ;
#131 = AXIS2_PLACEMENT_3D ( 'NONE', #171, #227, #89 ) ;
#132 = DIRECTION ( 'NONE',  ( 1.000000000000000000, 0.000000000000000000, 0.000000000000000000 ) ) ;
#133 = DIRECTION ( 'NONE',  ( 0.000000000000000000, 0.000000000000000000, 1.000000000000000000 ) ) ;
#134 = CARTESIAN_POINT ( 'NONE',  ( 0.000000000000000000, 0.000000000000000000, 800.0000000000000000 ) ) ;
#135 = COORDINATED_UNIVERSAL_TIME_OFFSET ( 1, 0, .AHEAD. ) ;
#136 = CARTESIAN_POINT ( 'NONE',  ( 0.000000000000000000, 0.000000000000000000, 0.000000000000000000 ) ) ;
#137 = VECTOR ( 'NONE', #246, 1000.000000000000000 ) ;
#138 = CARTESIAN_POINT ( 'NONE',  ( -9.000000000000000000, 0.000000000000000000, 800.0000000000000000 ) ) ;
#139 = CALENDAR_DATE ( 2023, 12, 2 ) ;
#140 = CARTESIAN_POINT ( 'NONE',  ( 0.000000000000000000, 0.000000000000000000, 7.000000000000000000 ) ) ;
#141 = APPLICATION_PROTOCOL_DEFINITION ( 'international standard', 'config_control_design', 1994, #196 ) ;
#142 = AXIS2_PLACEMENT_3D ( 'NONE', #68, #155, #202 ) ;
#143 = EDGE_CURVE ( 'NONE', #90, #153, #105, .T. ) ;
#144 = CARTESIAN_POINT ( 'NONE',  ( -12.00000000000000178, 0.000000000000000000, 0.000000000000000000 ) ) ;
#145 = CC_DESIGN_APPROVAL ( #168, ( #27 ) ) ;
#146 = ORIENTED_EDGE ( 'NONE', *, *, #44, .T. ) ;
#147 = ADVANCED_FACE ( 'NONE', ( #70 ), #26, .T. ) ;
#148 = APPROVAL_ROLE ( '' ) ;
#149 = CARTESIAN_POINT ( 'NONE',  ( 0.000000000000000000, 0.000000000000000000, 7.000000000000000000 ) ) ;
#150 = VERTEX_POINT ( 'NONE', #182 ) ;
#151 = ORIENTED_EDGE ( 'NONE', *, *, #143, .F. ) ;
#152 = CARTESIAN_POINT ( 'NONE',  ( 0.000000000000000000, 0.000000000000000000, 7.000000000000000000 ) ) ;
#153 = VERTEX_POINT ( 'NONE', #28 ) ;
#154 = CIRCLE ( 'NONE', #66, 12.00000000000000178 ) ;
#155 = DIRECTION ( 'NONE',  ( -0.000000000000000000, -0.000000000000000000, -1.000000000000000000 ) ) ;
#156 = CIRCLE ( 'NONE', #50, 12.00000000000000178 ) ;
#157 = DIRECTION ( 'NONE',  ( 0.000000000000000000, 0.000000000000000000, 1.000000000000000000 ) ) ;
#158 = ADVANCED_FACE ( 'NONE', ( #47 ), #7, .T. ) ;
#159 = DATE_TIME_ROLE ( 'creation_date' ) ;
#160 = CARTESIAN_POINT ( 'NONE',  ( 0.000000000000000000, 0.000000000000000000, 7.000000000000000000 ) ) ;
#161 = DIRECTION ( 'NONE',  ( 1.000000000000000000, 0.000000000000000000, 0.000000000000000000 ) ) ;
#162 = CC_DESIGN_SECURITY_CLASSIFICATION ( #200, ( #27 ) ) ;
#163 = CARTESIAN_POINT ( 'NONE',  ( 9.000000000000000000, 1.102182119232617714E-15, 800.0000000000000000 ) ) ;
#164 = AXIS2_PLACEMENT_3D ( 'NONE', #40, #193, #221 ) ;
#165 = EDGE_LOOP ( 'NONE', ( #24, #39 ) ) ;
#166 = EDGE_CURVE ( 'NONE', #106, #75, #170, .T. ) ;
#167 = EDGE_LOOP ( 'NONE', ( #93, #124 ) ) ;
#168 = APPROVAL ( #100, 'NEURÈENÝ' ) ;
#169 = EDGE_LOOP ( 'NONE', ( #183, #77, #205, #231 ) ) ;
#170 = CIRCLE ( 'NONE', #242, 9.000000000000000000 ) ;
#171 = CARTESIAN_POINT ( 'NONE',  ( 0.000000000000000000, 0.000000000000000000, 7.000000000000000000 ) ) ;
#172 = LINE ( 'NONE', #21, #48 ) ;
#173 = CARTESIAN_POINT ( 'NONE',  ( 0.000000000000000000, 0.000000000000000000, 0.000000000000000000 ) ) ;
#174 = EDGE_CURVE ( 'NONE', #106, #176, #11, .T. ) ;
#175 = PLANE ( 'NONE',  #204 ) ;
#176 = VERTEX_POINT ( 'NONE', #71 ) ;
#177 = PERSON_AND_ORGANIZATION_ROLE ( 'creator' ) ;
#178 = APPROVAL_ROLE ( '' ) ;
#179 = APPROVAL_ROLE ( '' ) ;
#180 = CYLINDRICAL_SURFACE ( 'NONE', #142, 9.000000000000000000 ) ;
#181 = ADVANCED_BREP_SHAPE_REPRESENTATION ( 'bc1f', ( #9, #10 ), #233 ) ;
#182 = CARTESIAN_POINT ( 'NONE',  ( 12.00000000000000178, 1.469576158976824144E-15, 0.000000000000000000 ) ) ;
#183 = ORIENTED_EDGE ( 'NONE', *, *, #174, .F. ) ;
#184 = AXIS2_PLACEMENT_3D ( 'NONE', #120, #157, #42 ) ;
#185 = VERTEX_POINT ( 'NONE', #144 ) ;
#186 = EDGE_CURVE ( 'NONE', #153, #90, #154, .T. ) ;
#187 = DIRECTION ( 'NONE',  ( -0.000000000000000000, -0.000000000000000000, -1.000000000000000000 ) ) ;
#188 = ORIENTED_EDGE ( 'NONE', *, *, #14, .T. ) ;
#189 = CARTESIAN_POINT ( 'NONE',  ( -9.000000000000000000, 0.000000000000000000, 7.000000000000000000 ) ) ;
#190 = ORIENTED_EDGE ( 'NONE', *, *, #143, .T. ) ;
#191 = VERTEX_POINT ( 'NONE', #189 ) ;
#192 = CALENDAR_DATE ( 2023, 12, 2 ) ;
#193 = DIRECTION ( 'NONE',  ( -0.000000000000000000, -0.000000000000000000, -1.000000000000000000 ) ) ;
#194 = DATE_TIME_ROLE ( 'classification_date' ) ;
#195 = ORIENTED_EDGE ( 'NONE', *, *, #44, .F. ) ;
#196 = APPLICATION_CONTEXT ( 'configuration controlled 3d designs of mechanical parts and assemblies' ) ;
#197 = AXIS2_PLACEMENT_3D ( 'NONE', #96, #218, #45 ) ;
#198 = CC_DESIGN_DATE_AND_TIME_ASSIGNMENT ( #115, #194, ( #200 ) ) ;
#199 = DIRECTION ( 'NONE',  ( 1.000000000000000000, 0.000000000000000000, 0.000000000000000000 ) ) ;
#200 = SECURITY_CLASSIFICATION ( '', '', #12 ) ;
#201 = APPROVAL_DATE_TIME ( #203, #41 ) ;
#202 = DIRECTION ( 'NONE',  ( -1.000000000000000000, 0.000000000000000000, 0.000000000000000000 ) ) ;
#203 = DATE_AND_TIME ( #3, #95 ) ;
#204 = AXIS2_PLACEMENT_3D ( 'NONE', #152, #37, #229 ) ;
#205 = ORIENTED_EDGE ( 'NONE', *, *, #13, .T. ) ;
#206 = APPROVAL_PERSON_ORGANIZATION ( #216, #41, #178 ) ;
#207 = DIRECTION ( 'NONE',  ( 0.000000000000000000, 0.000000000000000000, 1.000000000000000000 ) ) ;
#208 = DIRECTION ( 'NONE',  ( 0.000000000000000000, 0.000000000000000000, 1.000000000000000000 ) ) ;
#209 = LINE ( 'NONE', #252, #25 ) ;
#210 = APPROVAL ( #130, 'NEURÈENÝ' ) ;
#211 = DIRECTION ( 'NONE',  ( 0.000000000000000000, 0.000000000000000000, 1.000000000000000000 ) ) ;
#212 = DIRECTION ( 'NONE',  ( 0.000000000000000000, 0.000000000000000000, 1.000000000000000000 ) ) ;
#213 = CYLINDRICAL_SURFACE ( 'NONE', #164, 12.00000000000000178 ) ;
#214 = DESIGN_CONTEXT ( 'detailed design', #196, 'design' ) ;
#215 = CC_DESIGN_PERSON_AND_ORGANIZATION_ASSIGNMENT ( #23, #94, ( #230 ) ) ;
#216 = PERSON_AND_ORGANIZATION ( #217, #79 ) ;
#217 = PERSON ( 'NEURÈENÝ', 'NEURÈENÝ', 'NEURÈENÝ', ('NEURÈENÝ'), ('NEURÈENÝ'), ('NEURÈENÝ') ) ;
#218 = DIRECTION ( 'NONE',  ( -0.000000000000000000, -0.000000000000000000, -1.000000000000000000 ) ) ;
#219 = CARTESIAN_POINT ( 'NONE',  ( -12.00000000000000178, 0.000000000000000000, 7.000000000000000000 ) ) ;
#220 = EDGE_CURVE ( 'NONE', #191, #176, #125, .T. ) ;
#221 = DIRECTION ( 'NONE',  ( -1.000000000000000000, 0.000000000000000000, 0.000000000000000000 ) ) ;
#222 = CC_DESIGN_APPROVAL ( #41, ( #52 ) ) ;
#223 = DATE_AND_TIME ( #51, #126 ) ;
#224 = PERSON_AND_ORGANIZATION ( #217, #79 ) ;
#225 = EDGE_CURVE ( 'NONE', #90, #185, #209, .T. ) ;
#226 = FACE_OUTER_BOUND ( 'NONE', #169, .T. ) ;
#227 = DIRECTION ( 'NONE',  ( 0.000000000000000000, 0.000000000000000000, 1.000000000000000000 ) ) ;
#228 = ORIENTED_EDGE ( 'NONE', *, *, #186, .T. ) ;
#229 = DIRECTION ( 'NONE',  ( 1.000000000000000000, 0.000000000000000000, -0.000000000000000000 ) ) ;
#230 = PRODUCT ( 'bc1f', 'bc1f', '', ( #240 ) ) ;
#231 = ORIENTED_EDGE ( 'NONE', *, *, #220, .T. ) ;
#232 = CARTESIAN_POINT ( 'NONE',  ( -9.000000000000000000, 0.000000000000000000, 800.0000000000000000 ) ) ;
#233 =( GEOMETRIC_REPRESENTATION_CONTEXT ( 3 ) GLOBAL_UNCERTAINTY_ASSIGNED_CONTEXT ( ( #238 ) ) GLOBAL_UNIT_ASSIGNED_CONTEXT ( ( #56, #62, #74 ) ) REPRESENTATION_CONTEXT ( 'NONE', 'WORKASPACE' ) );
#234 = EDGE_LOOP ( 'NONE', ( #104, #188, #146, #253 ) ) ;
#235 = APPROVAL_STATUS ( 'not_yet_approved' ) ;
#236 = DIRECTION ( 'NONE',  ( 1.000000000000000000, 0.000000000000000000, 0.000000000000000000 ) ) ;
#237 = CARTESIAN_POINT ( 'NONE',  ( 9.000000000000000000, 1.102182119232617714E-15, 800.0000000000000000 ) ) ;
#238 = UNCERTAINTY_MEASURE_WITH_UNIT (LENGTH_MEASURE( 1.000000000000000082E-05 ), #56, 'distance_accuracy_value', 'NONE');
#239 = APPROVAL_PERSON_ORGANIZATION ( #22, #210, #148 ) ;
#240 = MECHANICAL_CONTEXT ( 'NONE', #97, 'mechanical' ) ;
#241 = DIRECTION ( 'NONE',  ( 0.000000000000000000, 0.000000000000000000, 1.000000000000000000 ) ) ;
#242 = AXIS2_PLACEMENT_3D ( 'NONE', #32, #129, #243 ) ;
#243 = DIRECTION ( 'NONE',  ( 1.000000000000000000, 0.000000000000000000, 0.000000000000000000 ) ) ;
#244 = ADVANCED_FACE ( 'NONE', ( #113, #76 ), #175, .T. ) ;
#245 = LOCAL_TIME ( 11, 34, 1.000000000000000000, #46 ) ;
#246 = DIRECTION ( 'NONE',  ( -0.000000000000000000, -0.000000000000000000, -1.000000000000000000 ) ) ;
#247 = AXIS2_PLACEMENT_3D ( 'NONE', #160, #117, #236 ) ;
#248 = ORIENTED_EDGE ( 'NONE', *, *, #14, .F. ) ;
#249 = EDGE_LOOP ( 'NONE', ( #248, #151, #123, #103 ) ) ;
#250 = DIRECTION ( 'NONE',  ( 1.000000000000000000, 0.000000000000000000, 0.000000000000000000 ) ) ;
#251 = EDGE_CURVE ( 'NONE', #185, #150, #57, .T. ) ;
#252 = CARTESIAN_POINT ( 'NONE',  ( -12.00000000000000178, 0.000000000000000000, 7.000000000000000000 ) ) ;
#253 = ORIENTED_EDGE ( 'NONE', *, *, #225, .F. ) ;
#254 = PERSON_AND_ORGANIZATION_ROLE ( 'classification_officer' ) ;
#255 = FACE_OUTER_BOUND ( 'NONE', #249, .T. ) ;
ENDSEC;
END-ISO-10303-21;
