ISO-10303-21;
HEADER;
FILE_DESCRIPTION (( 'STEP AP203' ),
    '1' );
FILE_NAME ('9073.STEP',
    '2023-02-12T11:28:22',
    ( '' ),
    ( '' ),
    'SwSTEP 2.0',
    'SolidWorks 2019',
    '' );
FILE_SCHEMA (( 'CONFIG_CONTROL_DESIGN' ));
ENDSEC;

DATA;
#1 = AXIS2_PLACEMENT_3D ( 'NONE', #228, #52, #210 ) ;
#2 = EDGE_CURVE ( 'NONE', #149, #135, #121, .T. ) ;
#3 = APPROVAL ( #103, 'NEURÈENÝ' ) ;
#4 = ORIENTED_EDGE ( 'NONE', *, *, #14, .T. ) ;
#5 = ADVANCED_FACE ( 'NONE', ( #138 ), #64, .T. ) ;
#6 = AXIS2_PLACEMENT_3D ( 'NONE', #108, #35, #93 ) ;
#7 = SECURITY_CLASSIFICATION_LEVEL ( 'unclassified' ) ;
#8 = ORIENTED_EDGE ( 'NONE', *, *, #230, .T. ) ;
#9 = EDGE_CURVE ( 'NONE', #125, #149, #43, .T. ) ;
#10 = EDGE_LOOP ( 'NONE', ( #120, #229, #29, #152 ) ) ;
#11 = DIRECTION ( 'NONE',  ( 1.000000000000000000, 0.000000000000000000, 0.000000000000000000 ) ) ;
#12 = CARTESIAN_POINT ( 'NONE',  ( 8.000000000000000000, 9.797174393178825657E-16, 0.000000000000000000 ) ) ;
#13 = CARTESIAN_POINT ( 'NONE',  ( 0.000000000000000000, 0.000000000000000000, 100.0000000000000000 ) ) ;
#14 = EDGE_CURVE ( 'NONE', #125, #234, #25, .T. ) ;
#15 = DIRECTION ( 'NONE',  ( -0.000000000000000000, -0.000000000000000000, -1.000000000000000000 ) ) ;
#16 = ADVANCED_BREP_SHAPE_REPRESENTATION ( '9073', ( #215, #142 ), #131 ) ;
#17 = APPROVAL ( #235, 'NEURÈENÝ' ) ;
#18 = CIRCLE ( 'NONE', #164, 8.000000000000000000 ) ;
#19 = VECTOR ( 'NONE', #176, 1000.000000000000000 ) ;
#20 = DIRECTION ( 'NONE',  ( 1.000000000000000000, 0.000000000000000000, -0.000000000000000000 ) ) ;
#21 = ORIENTED_EDGE ( 'NONE', *, *, #214, .T. ) ;
#22 = CC_DESIGN_PERSON_AND_ORGANIZATION_ASSIGNMENT ( #158, #232, ( #102 ) ) ;
#23 = PERSON_AND_ORGANIZATION_ROLE ( 'design_owner' ) ;
#24 = EDGE_CURVE ( 'NONE', #55, #76, #122, .T. ) ;
#25 = LINE ( 'NONE', #123, #116 ) ;
#26 = DIRECTION ( 'NONE',  ( 1.000000000000000000, 0.000000000000000000, 0.000000000000000000 ) ) ;
#27 = CARTESIAN_POINT ( 'NONE',  ( 0.000000000000000000, 0.000000000000000000, 0.000000000000000000 ) ) ;
#28 = CARTESIAN_POINT ( 'NONE',  ( 0.000000000000000000, 0.000000000000000000, 5.000000000000000000 ) ) ;
#29 = ORIENTED_EDGE ( 'NONE', *, *, #2, .T. ) ;
#30 = CARTESIAN_POINT ( 'NONE',  ( 0.000000000000000000, 0.000000000000000000, 0.000000000000000000 ) ) ;
#31 = COORDINATED_UNIVERSAL_TIME_OFFSET ( 1, 0, .AHEAD. ) ;
#32 = CYLINDRICAL_SURFACE ( 'NONE', #6, 5.000000000000000888 ) ;
#33 = ORIENTED_EDGE ( 'NONE', *, *, #24, .T. ) ;
#34 = APPROVAL_ROLE ( '' ) ;
#35 = DIRECTION ( 'NONE',  ( -0.000000000000000000, -0.000000000000000000, -1.000000000000000000 ) ) ;
#36 = DIRECTION ( 'NONE',  ( 0.000000000000000000, 0.000000000000000000, 1.000000000000000000 ) ) ;
#37 = APPLICATION_CONTEXT ( 'configuration controlled 3d designs of mechanical parts and assemblies' ) ;
#38 = CC_DESIGN_SECURITY_CLASSIFICATION ( #44, ( #75 ) ) ;
#39 = CC_DESIGN_PERSON_AND_ORGANIZATION_ASSIGNMENT ( #168, #202, ( #75 ) ) ;
#40 = ORIENTED_EDGE ( 'NONE', *, *, #230, .F. ) ;
#41 = LOCAL_TIME ( 12, 28, 22.00000000000000000, #58 ) ;
#42 = ORIENTED_EDGE ( 'NONE', *, *, #9, .F. ) ;
#43 = CIRCLE ( 'NONE', #86, 8.000000000000000000 ) ;
#44 = SECURITY_CLASSIFICATION ( '', '', #7 ) ;
#45 = APPROVAL_STATUS ( 'not_yet_approved' ) ;
#46 = CARTESIAN_POINT ( 'NONE',  ( 0.000000000000000000, 0.000000000000000000, 5.000000000000000000 ) ) ;
#47 = EDGE_LOOP ( 'NONE', ( #112, #146 ) ) ;
#48 = DIRECTION ( 'NONE',  ( 1.000000000000000000, 0.000000000000000000, 0.000000000000000000 ) ) ;
#49 = ORIENTED_EDGE ( 'NONE', *, *, #9, .T. ) ;
#50 = CARTESIAN_POINT ( 'NONE',  ( 8.000000000000000000, 9.797174393178825657E-16, 5.000000000000000000 ) ) ;
#51 = CIRCLE ( 'NONE', #54, 5.000000000000000888 ) ;
#52 = DIRECTION ( 'NONE',  ( -0.000000000000000000, -0.000000000000000000, -1.000000000000000000 ) ) ;
#53 = FACE_OUTER_BOUND ( 'NONE', #10, .T. ) ;
#54 = AXIS2_PLACEMENT_3D ( 'NONE', #46, #36, #105 ) ;
#55 = VERTEX_POINT ( 'NONE', #219 ) ;
#56 = ADVANCED_FACE ( 'NONE', ( #198 ), #236, .F. ) ;
#57 = CIRCLE ( 'NONE', #109, 8.000000000000000000 ) ;
#58 = COORDINATED_UNIVERSAL_TIME_OFFSET ( 1, 0, .AHEAD. ) ;
#59 = CALENDAR_DATE ( 2023, 12, 2 ) ;
#60 = EDGE_LOOP ( 'NONE', ( #8, #107 ) ) ;
#61 = DIRECTION ( 'NONE',  ( 0.000000000000000000, 0.000000000000000000, 1.000000000000000000 ) ) ;
#62 = APPROVAL_ROLE ( '' ) ;
#63 = CC_DESIGN_APPROVAL ( #3, ( #75 ) ) ;
#64 = CYLINDRICAL_SURFACE ( 'NONE', #174, 5.000000000000000888 ) ;
#65 = ORIENTED_EDGE ( 'NONE', *, *, #88, .F. ) ;
#66 = CARTESIAN_POINT ( 'NONE',  ( 0.000000000000000000, 0.000000000000000000, 100.0000000000000000 ) ) ;
#67 = AXIS2_PLACEMENT_3D ( 'NONE', #28, #101, #48 ) ;
#68 = CARTESIAN_POINT ( 'NONE',  ( 0.000000000000000000, 0.000000000000000000, 5.000000000000000000 ) ) ;
#69 = EDGE_CURVE ( 'NONE', #85, #76, #119, .T. ) ;
#70 = FACE_OUTER_BOUND ( 'NONE', #92, .T. ) ;
#71 = CYLINDRICAL_SURFACE ( 'NONE', #1, 8.000000000000000000 ) ;
#72 = AXIS2_PLACEMENT_3D ( 'NONE', #66, #167, #211 ) ;
#73 = COORDINATED_UNIVERSAL_TIME_OFFSET ( 1, 0, .AHEAD. ) ;
#74 = FACE_OUTER_BOUND ( 'NONE', #60, .T. ) ;
#75 = PRODUCT_DEFINITION_FORMATION_WITH_SPECIFIED_SOURCE ( 'LIBOVOLNÝ', '', #162, .NOT_KNOWN. ) ;
#76 = VERTEX_POINT ( 'NONE', #133 ) ;
#77 = DIRECTION ( 'NONE',  ( 0.000000000000000000, 0.000000000000000000, 1.000000000000000000 ) ) ;
#78 = DIRECTION ( 'NONE',  ( 0.000000000000000000, 0.000000000000000000, 1.000000000000000000 ) ) ;
#79 = APPROVAL_DATE_TIME ( #179, #17 ) ;
#80 = APPLICATION_PROTOCOL_DEFINITION ( 'international standard', 'config_control_design', 1994, #193 ) ;
#81 = AXIS2_PLACEMENT_3D ( 'NONE', #115, #192, #224 ) ;
#82 = LOCAL_TIME ( 12, 28, 22.00000000000000000, #177 ) ;
#83 = PERSON_AND_ORGANIZATION ( #175, #110 ) ;
#84 = FACE_OUTER_BOUND ( 'NONE', #178, .T. ) ;
#85 = VERTEX_POINT ( 'NONE', #165 ) ;
#86 = AXIS2_PLACEMENT_3D ( 'NONE', #126, #61, #26 ) ;
#87 = FACE_BOUND ( 'NONE', #47, .T. ) ;
#88 = EDGE_CURVE ( 'NONE', #161, #85, #189, .T. ) ;
#89 = DATE_AND_TIME ( #182, #194 ) ;
#90 = DIRECTION ( 'NONE',  ( -0.000000000000000000, -0.000000000000000000, -1.000000000000000000 ) ) ;
#91 = PERSON_AND_ORGANIZATION_ROLE ( 'creator' ) ;
#92 = EDGE_LOOP ( 'NONE', ( #129, #49 ) ) ;
#93 = DIRECTION ( 'NONE',  ( -1.000000000000000000, 0.000000000000000000, 0.000000000000000000 ) ) ;
#94 = AXIS2_PLACEMENT_3D ( 'NONE', #13, #143, #186 ) ;
#95 = APPROVAL_PERSON_ORGANIZATION ( #221, #17, #62 ) ;
#96 = EDGE_CURVE ( 'NONE', #55, #161, #106, .T. ) ;
#97 =( NAMED_UNIT ( * ) SI_UNIT ( $, .STERADIAN. ) SOLID_ANGLE_UNIT ( ) );
#98 = PRODUCT_RELATED_PRODUCT_CATEGORY ( 'detail', '', ( #162 ) ) ;
#99 = EDGE_CURVE ( 'NONE', #135, #234, #57, .T. ) ;
#100 = ORIENTED_EDGE ( 'NONE', *, *, #69, .T. ) ;
#101 = DIRECTION ( 'NONE',  ( 0.000000000000000000, 0.000000000000000000, 1.000000000000000000 ) ) ;
#102 = PRODUCT_DEFINITION ( 'NEZNÁMÝ', '', #75, #249 ) ;
#103 = APPROVAL_STATUS ( 'not_yet_approved' ) ;
#104 = DATE_AND_TIME ( #170, #255 ) ;
#105 = DIRECTION ( 'NONE',  ( 1.000000000000000000, 0.000000000000000000, 0.000000000000000000 ) ) ;
#106 = CIRCLE ( 'NONE', #94, 5.000000000000000888 ) ;
#107 = ORIENTED_EDGE ( 'NONE', *, *, #96, .T. ) ;
#108 = CARTESIAN_POINT ( 'NONE',  ( 0.000000000000000000, 0.000000000000000000, 100.0000000000000000 ) ) ;
#109 = AXIS2_PLACEMENT_3D ( 'NONE', #30, #169, #184 ) ;
#110 = ORGANIZATION ( 'NEURÈENÝ', 'NEURÈENÝ', '' ) ;
#111 = PERSON_AND_ORGANIZATION ( #175, #110 ) ;
#112 = ORIENTED_EDGE ( 'NONE', *, *, #69, .F. ) ;
#113 = CARTESIAN_POINT ( 'NONE',  ( -5.000000000000000888, 0.000000000000000000, 100.0000000000000000 ) ) ;
#114 = CALENDAR_DATE ( 2023, 12, 2 ) ;
#115 = CARTESIAN_POINT ( 'NONE',  ( 0.000000000000000000, 0.000000000000000000, 100.0000000000000000 ) ) ;
#116 = VECTOR ( 'NONE', #137, 1000.000000000000000 ) ;
#117 = CARTESIAN_POINT ( 'NONE',  ( -8.000000000000000000, 0.000000000000000000, 5.000000000000000000 ) ) ;
#118 = ORIENTED_EDGE ( 'NONE', *, *, #96, .F. ) ;
#119 = CIRCLE ( 'NONE', #67, 5.000000000000000888 ) ;
#120 = ORIENTED_EDGE ( 'NONE', *, *, #14, .F. ) ;
#121 = LINE ( 'NONE', #117, #19 ) ;
#122 = LINE ( 'NONE', #220, #141 ) ;
#123 = CARTESIAN_POINT ( 'NONE',  ( 8.000000000000000000, 9.797174393178825657E-16, 5.000000000000000000 ) ) ;
#124 = AXIS2_PLACEMENT_3D ( 'NONE', #244, #90, #248 ) ;
#125 = VERTEX_POINT ( 'NONE', #50 ) ;
#126 = CARTESIAN_POINT ( 'NONE',  ( 0.000000000000000000, 0.000000000000000000, 5.000000000000000000 ) ) ;
#127 = DATE_AND_TIME ( #114, #160 ) ;
#128 = DIRECTION ( 'NONE',  ( 0.000000000000000000, 0.000000000000000000, 1.000000000000000000 ) ) ;
#129 = ORIENTED_EDGE ( 'NONE', *, *, #237, .T. ) ;
#130 = ADVANCED_FACE ( 'NONE', ( #53 ), #144, .T. ) ;
#131 =( GEOMETRIC_REPRESENTATION_CONTEXT ( 3 ) GLOBAL_UNCERTAINTY_ASSIGNED_CONTEXT ( ( #245 ) ) GLOBAL_UNIT_ASSIGNED_CONTEXT ( ( #155, #156, #97 ) ) REPRESENTATION_CONTEXT ( 'NONE', 'WORKASPACE' ) );
#132 = EDGE_LOOP ( 'NONE', ( #42, #4, #251, #212 ) ) ;
#133 = CARTESIAN_POINT ( 'NONE',  ( 5.000000000000000888, 6.123233995736767268E-16, 5.000000000000000000 ) ) ;
#134 = FACE_OUTER_BOUND ( 'NONE', #132, .T. ) ;
#135 = VERTEX_POINT ( 'NONE', #205 ) ;
#136 = CALENDAR_DATE ( 2023, 12, 2 ) ;
#137 = DIRECTION ( 'NONE',  ( -0.000000000000000000, -0.000000000000000000, -1.000000000000000000 ) ) ;
#138 = FACE_OUTER_BOUND ( 'NONE', #218, .T. ) ;
#139 = DIRECTION ( 'NONE',  ( -0.000000000000000000, -0.000000000000000000, -1.000000000000000000 ) ) ;
#140 = ADVANCED_FACE ( 'NONE', ( #134 ), #71, .T. ) ;
#141 = VECTOR ( 'NONE', #200, 1000.000000000000000 ) ;
#142 = AXIS2_PLACEMENT_3D ( 'NONE', #254, #77, #154 ) ;
#143 = DIRECTION ( 'NONE',  ( 0.000000000000000000, 0.000000000000000000, 1.000000000000000000 ) ) ;
#144 = CYLINDRICAL_SURFACE ( 'NONE', #124, 8.000000000000000000 ) ;
#145 = CARTESIAN_POINT ( 'NONE',  ( 0.000000000000000000, 0.000000000000000000, 5.000000000000000000 ) ) ;
#146 = ORIENTED_EDGE ( 'NONE', *, *, #214, .F. ) ;
#147 = DATE_TIME_ROLE ( 'creation_date' ) ;
#148 = ADVANCED_FACE ( 'NONE', ( #84 ), #32, .T. ) ;
#149 = VERTEX_POINT ( 'NONE', #171 ) ;
#150 = PLANE ( 'NONE',  #72 ) ;
#151 = CLOSED_SHELL ( 'NONE', ( #148, #140, #130, #246, #56, #5, #195 ) ) ;
#152 = ORIENTED_EDGE ( 'NONE', *, *, #99, .T. ) ;
#153 = VECTOR ( 'NONE', #15, 1000.000000000000000 ) ;
#154 = DIRECTION ( 'NONE',  ( 1.000000000000000000, 0.000000000000000000, 0.000000000000000000 ) ) ;
#155 =( LENGTH_UNIT ( ) NAMED_UNIT ( * ) SI_UNIT ( .MILLI., .METRE. ) );
#156 =( NAMED_UNIT ( * ) PLANE_ANGLE_UNIT ( ) SI_UNIT ( $, .RADIAN. ) );
#157 = CIRCLE ( 'NONE', #81, 5.000000000000000888 ) ;
#158 = PERSON_AND_ORGANIZATION ( #175, #110 ) ;
#159 = DIRECTION ( 'NONE',  ( -1.000000000000000000, 0.000000000000000000, 0.000000000000000000 ) ) ;
#160 = LOCAL_TIME ( 12, 28, 22.00000000000000000, #73 ) ;
#161 = VERTEX_POINT ( 'NONE', #163 ) ;
#162 = PRODUCT ( '9073', '9073', '', ( #233 ) ) ;
#163 = CARTESIAN_POINT ( 'NONE',  ( -5.000000000000000888, 0.000000000000000000, 100.0000000000000000 ) ) ;
#164 = AXIS2_PLACEMENT_3D ( 'NONE', #225, #241, #252 ) ;
#165 = CARTESIAN_POINT ( 'NONE',  ( -5.000000000000000888, 0.000000000000000000, 5.000000000000000000 ) ) ;
#166 = CC_DESIGN_DATE_AND_TIME_ASSIGNMENT ( #104, #204, ( #44 ) ) ;
#167 = DIRECTION ( 'NONE',  ( 0.000000000000000000, 0.000000000000000000, 1.000000000000000000 ) ) ;
#168 = PERSON_AND_ORGANIZATION ( #175, #110 ) ;
#169 = DIRECTION ( 'NONE',  ( 0.000000000000000000, 0.000000000000000000, 1.000000000000000000 ) ) ;
#170 = CALENDAR_DATE ( 2023, 12, 2 ) ;
#171 = CARTESIAN_POINT ( 'NONE',  ( -8.000000000000000000, 0.000000000000000000, 5.000000000000000000 ) ) ;
#172 = CC_DESIGN_PERSON_AND_ORGANIZATION_ASSIGNMENT ( #239, #247, ( #44 ) ) ;
#173 = APPLICATION_PROTOCOL_DEFINITION ( 'international standard', 'config_control_design', 1994, #37 ) ;
#174 = AXIS2_PLACEMENT_3D ( 'NONE', #199, #139, #159 ) ;
#175 = PERSON ( 'NEURÈENÝ', 'NEURÈENÝ', 'NEURÈENÝ', ('NEURÈENÝ'), ('NEURÈENÝ'), ('NEURÈENÝ') ) ;
#176 = DIRECTION ( 'NONE',  ( -0.000000000000000000, -0.000000000000000000, -1.000000000000000000 ) ) ;
#177 = COORDINATED_UNIVERSAL_TIME_OFFSET ( 1, 0, .AHEAD. ) ;
#178 = EDGE_LOOP ( 'NONE', ( #118, #33, #21, #65 ) ) ;
#179 = DATE_AND_TIME ( #59, #82 ) ;
#180 = DIRECTION ( 'NONE',  ( 1.000000000000000000, 0.000000000000000000, -0.000000000000000000 ) ) ;
#181 = APPROVAL_PERSON_ORGANIZATION ( #83, #253, #208 ) ;
#182 = CALENDAR_DATE ( 2023, 12, 2 ) ;
#183 = SHAPE_DEFINITION_REPRESENTATION ( #191, #16 ) ;
#184 = DIRECTION ( 'NONE',  ( 1.000000000000000000, 0.000000000000000000, 0.000000000000000000 ) ) ;
#185 = APPROVAL_PERSON_ORGANIZATION ( #111, #3, #34 ) ;
#186 = DIRECTION ( 'NONE',  ( 1.000000000000000000, 0.000000000000000000, 0.000000000000000000 ) ) ;
#187 = EDGE_CURVE ( 'NONE', #234, #135, #18, .T. ) ;
#188 = APPROVAL_DATE_TIME ( #89, #3 ) ;
#189 = LINE ( 'NONE', #113, #153 ) ;
#190 = CC_DESIGN_DATE_AND_TIME_ASSIGNMENT ( #217, #147, ( #102 ) ) ;
#191 = PRODUCT_DEFINITION_SHAPE ( 'NONE', 'NONE',  #102 ) ;
#192 = DIRECTION ( 'NONE',  ( 0.000000000000000000, 0.000000000000000000, 1.000000000000000000 ) ) ;
#193 = APPLICATION_CONTEXT ( 'configuration controlled 3d designs of mechanical parts and assemblies' ) ;
#194 = LOCAL_TIME ( 12, 28, 22.00000000000000000, #223 ) ;
#195 = ADVANCED_FACE ( 'NONE', ( #74 ), #150, .T. ) ;
#196 = ORIENTED_EDGE ( 'NONE', *, *, #187, .F. ) ;
#197 = CIRCLE ( 'NONE', #242, 8.000000000000000000 ) ;
#198 = FACE_OUTER_BOUND ( 'NONE', #226, .T. ) ;
#199 = CARTESIAN_POINT ( 'NONE',  ( 0.000000000000000000, 0.000000000000000000, 100.0000000000000000 ) ) ;
#200 = DIRECTION ( 'NONE',  ( -0.000000000000000000, -0.000000000000000000, -1.000000000000000000 ) ) ;
#201 = CC_DESIGN_PERSON_AND_ORGANIZATION_ASSIGNMENT ( #222, #23, ( #162 ) ) ;
#202 = PERSON_AND_ORGANIZATION_ROLE ( 'design_supplier' ) ;
#203 = PLANE ( 'NONE',  #216 ) ;
#204 = DATE_TIME_ROLE ( 'classification_date' ) ;
#205 = CARTESIAN_POINT ( 'NONE',  ( -8.000000000000000000, 0.000000000000000000, 0.000000000000000000 ) ) ;
#206 = AXIS2_PLACEMENT_3D ( 'NONE', #27, #238, #180 ) ;
#207 = ORIENTED_EDGE ( 'NONE', *, *, #24, .F. ) ;
#208 = APPROVAL_ROLE ( '' ) ;
#209 = ORIENTED_EDGE ( 'NONE', *, *, #99, .F. ) ;
#210 = DIRECTION ( 'NONE',  ( -1.000000000000000000, 0.000000000000000000, 0.000000000000000000 ) ) ;
#211 = DIRECTION ( 'NONE',  ( 1.000000000000000000, 0.000000000000000000, -0.000000000000000000 ) ) ;
#212 = ORIENTED_EDGE ( 'NONE', *, *, #2, .F. ) ;
#213 = CC_DESIGN_PERSON_AND_ORGANIZATION_ASSIGNMENT ( #250, #91, ( #75 ) ) ;
#214 = EDGE_CURVE ( 'NONE', #76, #85, #51, .T. ) ;
#215 = MANIFOLD_SOLID_BREP ( 'Pøidat vysunutím3', #151 ) ;
#216 = AXIS2_PLACEMENT_3D ( 'NONE', #145, #78, #20 ) ;
#217 = DATE_AND_TIME ( #136, #41 ) ;
#218 = EDGE_LOOP ( 'NONE', ( #207, #40, #240, #100 ) ) ;
#219 = CARTESIAN_POINT ( 'NONE',  ( 5.000000000000000888, 6.123233995736767268E-16, 100.0000000000000000 ) ) ;
#220 = CARTESIAN_POINT ( 'NONE',  ( 5.000000000000000888, 6.123233995736767268E-16, 100.0000000000000000 ) ) ;
#221 = PERSON_AND_ORGANIZATION ( #175, #110 ) ;
#222 = PERSON_AND_ORGANIZATION ( #175, #110 ) ;
#223 = COORDINATED_UNIVERSAL_TIME_OFFSET ( 1, 0, .AHEAD. ) ;
#224 = DIRECTION ( 'NONE',  ( 1.000000000000000000, 0.000000000000000000, 0.000000000000000000 ) ) ;
#225 = CARTESIAN_POINT ( 'NONE',  ( 0.000000000000000000, 0.000000000000000000, 0.000000000000000000 ) ) ;
#226 = EDGE_LOOP ( 'NONE', ( #209, #196 ) ) ;
#227 = CC_DESIGN_APPROVAL ( #253, ( #44 ) ) ;
#228 = CARTESIAN_POINT ( 'NONE',  ( 0.000000000000000000, 0.000000000000000000, 5.000000000000000000 ) ) ;
#229 = ORIENTED_EDGE ( 'NONE', *, *, #237, .F. ) ;
#230 = EDGE_CURVE ( 'NONE', #161, #55, #157, .T. ) ;
#231 = CC_DESIGN_APPROVAL ( #17, ( #102 ) ) ;
#232 = PERSON_AND_ORGANIZATION_ROLE ( 'creator' ) ;
#233 = MECHANICAL_CONTEXT ( 'NONE', #37, 'mechanical' ) ;
#234 = VERTEX_POINT ( 'NONE', #12 ) ;
#235 = APPROVAL_STATUS ( 'not_yet_approved' ) ;
#236 = PLANE ( 'NONE',  #206 ) ;
#237 = EDGE_CURVE ( 'NONE', #149, #125, #197, .T. ) ;
#238 = DIRECTION ( 'NONE',  ( 0.000000000000000000, 0.000000000000000000, 1.000000000000000000 ) ) ;
#239 = PERSON_AND_ORGANIZATION ( #175, #110 ) ;
#240 = ORIENTED_EDGE ( 'NONE', *, *, #88, .T. ) ;
#241 = DIRECTION ( 'NONE',  ( 0.000000000000000000, 0.000000000000000000, 1.000000000000000000 ) ) ;
#242 = AXIS2_PLACEMENT_3D ( 'NONE', #68, #128, #11 ) ;
#243 = APPROVAL_DATE_TIME ( #127, #253 ) ;
#244 = CARTESIAN_POINT ( 'NONE',  ( 0.000000000000000000, 0.000000000000000000, 5.000000000000000000 ) ) ;
#245 = UNCERTAINTY_MEASURE_WITH_UNIT (LENGTH_MEASURE( 1.000000000000000082E-05 ), #155, 'distance_accuracy_value', 'NONE');
#246 = ADVANCED_FACE ( 'NONE', ( #87, #70 ), #203, .T. ) ;
#247 = PERSON_AND_ORGANIZATION_ROLE ( 'classification_officer' ) ;
#248 = DIRECTION ( 'NONE',  ( -1.000000000000000000, 0.000000000000000000, 0.000000000000000000 ) ) ;
#249 = DESIGN_CONTEXT ( 'detailed design', #193, 'design' ) ;
#250 = PERSON_AND_ORGANIZATION ( #175, #110 ) ;
#251 = ORIENTED_EDGE ( 'NONE', *, *, #187, .T. ) ;
#252 = DIRECTION ( 'NONE',  ( 1.000000000000000000, 0.000000000000000000, 0.000000000000000000 ) ) ;
#253 = APPROVAL ( #45, 'NEURÈENÝ' ) ;
#254 = CARTESIAN_POINT ( 'NONE',  ( 0.000000000000000000, 0.000000000000000000, 0.000000000000000000 ) ) ;
#255 = LOCAL_TIME ( 12, 28, 22.00000000000000000, #31 ) ;
ENDSEC;
END-ISO-10303-21;
