ISO-10303-21;
HEADER;
FILE_DESCRIPTION (( 'STEP AP203' ),
    '1' );
FILE_NAME ('24a4.STEP',
    '2023-02-12T12:37:55',
    ( '' ),
    ( '' ),
    'SwSTEP 2.0',
    'SolidWorks 2019',
    '' );
FILE_SCHEMA (( 'CONFIG_CONTROL_DESIGN' ));
ENDSEC;

DATA;
#1 = CALENDAR_DATE ( 2023, 12, 2 ) ;
#2 = VECTOR ( 'NONE', #27, 1000.000000000000000 ) ;
#3 = PERSON_AND_ORGANIZATION_ROLE ( 'classification_officer' ) ;
#4 = CARTESIAN_POINT ( 'NONE',  ( 0.000000000000000000, 0.000000000000000000, 0.000000000000000000 ) ) ;
#5 = DIRECTION ( 'NONE',  ( 1.000000000000000000, 0.000000000000000000, -0.000000000000000000 ) ) ;
#6 =( GEOMETRIC_REPRESENTATION_CONTEXT ( 3 ) GLOBAL_UNCERTAINTY_ASSIGNED_CONTEXT ( ( #11 ) ) GLOBAL_UNIT_ASSIGNED_CONTEXT ( ( #73, #250, #108 ) ) REPRESENTATION_CONTEXT ( 'NONE', 'WORKASPACE' ) );
#7 = EDGE_CURVE ( 'NONE', #149, #70, #208, .T. ) ;
#8 = EDGE_LOOP ( 'NONE', ( #207, #244, #191, #147 ) ) ;
#9 = ORIENTED_EDGE ( 'NONE', *, *, #252, .F. ) ;
#10 = VERTEX_POINT ( 'NONE', #30 ) ;
#11 = UNCERTAINTY_MEASURE_WITH_UNIT (LENGTH_MEASURE( 1.000000000000000082E-05 ), #73, 'distance_accuracy_value', 'NONE');
#12 = AXIS2_PLACEMENT_3D ( 'NONE', #109, #54, #55 ) ;
#13 = FACE_OUTER_BOUND ( 'NONE', #246, .T. ) ;
#14 = DIRECTION ( 'NONE',  ( -1.000000000000000000, 0.000000000000000000, 0.000000000000000000 ) ) ;
#15 = DIRECTION ( 'NONE',  ( 0.000000000000000000, 0.000000000000000000, 1.000000000000000000 ) ) ;
#16 = AXIS2_PLACEMENT_3D ( 'NONE', #178, #232, #254 ) ;
#17 = DIRECTION ( 'NONE',  ( -0.000000000000000000, -0.000000000000000000, -1.000000000000000000 ) ) ;
#18 = CARTESIAN_POINT ( 'NONE',  ( 0.000000000000000000, 0.000000000000000000, 3.000000000000000000 ) ) ;
#19 = DIRECTION ( 'NONE',  ( 0.000000000000000000, 0.000000000000000000, 1.000000000000000000 ) ) ;
#20 = EDGE_CURVE ( 'NONE', #70, #169, #212, .T. ) ;
#21 = COORDINATED_UNIVERSAL_TIME_OFFSET ( 1, 0, .AHEAD. ) ;
#22 = APPROVAL_DATE_TIME ( #46, #172 ) ;
#23 = CIRCLE ( 'NONE', #137, 2.000000000000000000 ) ;
#24 = ADVANCED_FACE ( 'NONE', ( #103, #13 ), #84, .T. ) ;
#25 = PERSON_AND_ORGANIZATION_ROLE ( 'creator' ) ;
#26 = PERSON_AND_ORGANIZATION ( #38, #116 ) ;
#27 = DIRECTION ( 'NONE',  ( -0.000000000000000000, -0.000000000000000000, -1.000000000000000000 ) ) ;
#28 = VERTEX_POINT ( 'NONE', #80 ) ;
#29 = FACE_OUTER_BOUND ( 'NONE', #180, .T. ) ;
#30 = CARTESIAN_POINT ( 'NONE',  ( 4.000000000000000000, 4.898587196589412829E-16, 3.000000000000000000 ) ) ;
#31 = DIRECTION ( 'NONE',  ( 1.000000000000000000, 0.000000000000000000, 0.000000000000000000 ) ) ;
#32 = DIRECTION ( 'NONE',  ( 0.000000000000000000, 0.000000000000000000, 1.000000000000000000 ) ) ;
#33 = APPLICATION_CONTEXT ( 'configuration controlled 3d designs of mechanical parts and assemblies' ) ;
#34 = CARTESIAN_POINT ( 'NONE',  ( -2.000000000000000000, 0.000000000000000000, 3.000000000000000000 ) ) ;
#35 = PRODUCT ( '24a4', '24a4', '', ( #141 ) ) ;
#36 = DIRECTION ( 'NONE',  ( 1.000000000000000000, 0.000000000000000000, 0.000000000000000000 ) ) ;
#37 = AXIS2_PLACEMENT_3D ( 'NONE', #228, #15, #36 ) ;
#38 = PERSON ( 'NEURÈENÝ', 'NEURÈENÝ', 'NEURÈENÝ', ('NEURÈENÝ'), ('NEURÈENÝ'), ('NEURÈENÝ') ) ;
#39 = CARTESIAN_POINT ( 'NONE',  ( -2.000000000000000000, 0.000000000000000000, 1000.000000000000000 ) ) ;
#40 = DIRECTION ( 'NONE',  ( -0.000000000000000000, -0.000000000000000000, -1.000000000000000000 ) ) ;
#41 = APPLICATION_PROTOCOL_DEFINITION ( 'international standard', 'config_control_design', 1994, #33 ) ;
#42 = AXIS2_PLACEMENT_3D ( 'NONE', #243, #67, #222 ) ;
#43 = PERSON_AND_ORGANIZATION_ROLE ( 'design_owner' ) ;
#44 = CC_DESIGN_APPROVAL ( #172, ( #47 ) ) ;
#45 = APPROVAL_STATUS ( 'not_yet_approved' ) ;
#46 = DATE_AND_TIME ( #234, #148 ) ;
#47 = PRODUCT_DEFINITION_FORMATION_WITH_SPECIFIED_SOURCE ( 'LIBOVOLNÝ', '', #35, .NOT_KNOWN. ) ;
#48 = EDGE_LOOP ( 'NONE', ( #97, #9 ) ) ;
#49 = CARTESIAN_POINT ( 'NONE',  ( 2.000000000000000000, 2.449293598294706414E-16, 3.000000000000000000 ) ) ;
#50 = PRODUCT_RELATED_PRODUCT_CATEGORY ( 'detail', '', ( #35 ) ) ;
#51 = CARTESIAN_POINT ( 'NONE',  ( 0.000000000000000000, 0.000000000000000000, 3.000000000000000000 ) ) ;
#52 = ORIENTED_EDGE ( 'NONE', *, *, #203, .F. ) ;
#53 = VERTEX_POINT ( 'NONE', #49 ) ;
#54 = DIRECTION ( 'NONE',  ( -0.000000000000000000, -0.000000000000000000, -1.000000000000000000 ) ) ;
#55 = DIRECTION ( 'NONE',  ( -1.000000000000000000, 0.000000000000000000, 0.000000000000000000 ) ) ;
#56 = PRODUCT_DEFINITION_SHAPE ( 'NONE', 'NONE',  #106 ) ;
#57 = CYLINDRICAL_SURFACE ( 'NONE', #98, 4.000000000000000000 ) ;
#58 = CARTESIAN_POINT ( 'NONE',  ( 0.000000000000000000, 0.000000000000000000, 3.000000000000000000 ) ) ;
#59 = CALENDAR_DATE ( 2023, 12, 2 ) ;
#60 = PERSON_AND_ORGANIZATION ( #38, #116 ) ;
#61 = CIRCLE ( 'NONE', #231, 2.000000000000000000 ) ;
#62 = APPROVAL_DATE_TIME ( #134, #233 ) ;
#63 = APPROVAL_DATE_TIME ( #114, #186 ) ;
#64 = CARTESIAN_POINT ( 'NONE',  ( 2.000000000000000000, 2.449293598294706414E-16, 1000.000000000000000 ) ) ;
#65 = CC_DESIGN_PERSON_AND_ORGANIZATION_ASSIGNMENT ( #95, #3, ( #89 ) ) ;
#66 = ADVANCED_BREP_SHAPE_REPRESENTATION ( '24a4', ( #181, #155 ), #6 ) ;
#67 = DIRECTION ( 'NONE',  ( -0.000000000000000000, -0.000000000000000000, -1.000000000000000000 ) ) ;
#68 = ORIENTED_EDGE ( 'NONE', *, *, #144, .T. ) ;
#69 = EDGE_CURVE ( 'NONE', #164, #53, #242, .T. ) ;
#70 = VERTEX_POINT ( 'NONE', #118 ) ;
#71 = CARTESIAN_POINT ( 'NONE',  ( 0.000000000000000000, 0.000000000000000000, 3.000000000000000000 ) ) ;
#72 = CARTESIAN_POINT ( 'NONE',  ( 0.000000000000000000, 0.000000000000000000, 1000.000000000000000 ) ) ;
#73 =( LENGTH_UNIT ( ) NAMED_UNIT ( * ) SI_UNIT ( .MILLI., .METRE. ) );
#74 = DIRECTION ( 'NONE',  ( 0.000000000000000000, 0.000000000000000000, 1.000000000000000000 ) ) ;
#75 = APPROVAL_PERSON_ORGANIZATION ( #26, #186, #160 ) ;
#76 = COORDINATED_UNIVERSAL_TIME_OFFSET ( 1, 0, .AHEAD. ) ;
#77 = ADVANCED_FACE ( 'NONE', ( #189 ), #81, .T. ) ;
#78 = DATE_TIME_ROLE ( 'creation_date' ) ;
#79 = PERSON_AND_ORGANIZATION ( #38, #116 ) ;
#80 = CARTESIAN_POINT ( 'NONE',  ( -2.000000000000000000, 0.000000000000000000, 1000.000000000000000 ) ) ;
#81 = CYLINDRICAL_SURFACE ( 'NONE', #42, 4.000000000000000000 ) ;
#82 = ORIENTED_EDGE ( 'NONE', *, *, #240, .T. ) ;
#83 = ORIENTED_EDGE ( 'NONE', *, *, #69, .T. ) ;
#84 = PLANE ( 'NONE',  #142 ) ;
#85 = EDGE_CURVE ( 'NONE', #225, #53, #93, .T. ) ;
#86 = DIRECTION ( 'NONE',  ( -1.000000000000000000, 0.000000000000000000, 0.000000000000000000 ) ) ;
#87 = DIRECTION ( 'NONE',  ( 1.000000000000000000, 0.000000000000000000, 0.000000000000000000 ) ) ;
#88 = DIRECTION ( 'NONE',  ( 1.000000000000000000, 0.000000000000000000, 0.000000000000000000 ) ) ;
#89 = SECURITY_CLASSIFICATION ( '', '', #157 ) ;
#90 = ORIENTED_EDGE ( 'NONE', *, *, #127, .T. ) ;
#91 = EDGE_LOOP ( 'NONE', ( #112, #167 ) ) ;
#92 = APPLICATION_PROTOCOL_DEFINITION ( 'international standard', 'config_control_design', 1994, #101 ) ;
#93 = CIRCLE ( 'NONE', #188, 2.000000000000000000 ) ;
#94 = AXIS2_PLACEMENT_3D ( 'NONE', #196, #32, #105 ) ;
#95 = PERSON_AND_ORGANIZATION ( #38, #116 ) ;
#96 = APPROVAL_ROLE ( '' ) ;
#97 = ORIENTED_EDGE ( 'NONE', *, *, #85, .F. ) ;
#98 = AXIS2_PLACEMENT_3D ( 'NONE', #58, #17, #14 ) ;
#99 = DIRECTION ( 'NONE',  ( -0.000000000000000000, -0.000000000000000000, -1.000000000000000000 ) ) ;
#100 = EDGE_LOOP ( 'NONE', ( #122, #52, #117, #150 ) ) ;
#101 = APPLICATION_CONTEXT ( 'configuration controlled 3d designs of mechanical parts and assemblies' ) ;
#102 = DIRECTION ( 'NONE',  ( 0.000000000000000000, 0.000000000000000000, 1.000000000000000000 ) ) ;
#103 = FACE_BOUND ( 'NONE', #48, .T. ) ;
#104 = LOCAL_TIME ( 13, 37, 55.00000000000000000, #21 ) ;
#105 = DIRECTION ( 'NONE',  ( 1.000000000000000000, 0.000000000000000000, -0.000000000000000000 ) ) ;
#106 = PRODUCT_DEFINITION ( 'NEZNÁMÝ', '', #47, #166 ) ;
#107 = DIRECTION ( 'NONE',  ( 0.000000000000000000, 0.000000000000000000, 1.000000000000000000 ) ) ;
#108 =( NAMED_UNIT ( * ) SI_UNIT ( $, .STERADIAN. ) SOLID_ANGLE_UNIT ( ) );
#109 = CARTESIAN_POINT ( 'NONE',  ( 0.000000000000000000, 0.000000000000000000, 1000.000000000000000 ) ) ;
#110 = CARTESIAN_POINT ( 'NONE',  ( 0.000000000000000000, 0.000000000000000000, 3.000000000000000000 ) ) ;
#111 = PERSON_AND_ORGANIZATION ( #38, #116 ) ;
#112 = ORIENTED_EDGE ( 'NONE', *, *, #20, .F. ) ;
#113 = APPROVAL_STATUS ( 'not_yet_approved' ) ;
#114 = DATE_AND_TIME ( #1, #245 ) ;
#115 = DATE_AND_TIME ( #59, #104 ) ;
#116 = ORGANIZATION ( 'NEURÈENÝ', 'NEURÈENÝ', '' ) ;
#117 = ORIENTED_EDGE ( 'NONE', *, *, #7, .T. ) ;
#118 = CARTESIAN_POINT ( 'NONE',  ( -4.000000000000000000, 0.000000000000000000, 0.000000000000000000 ) ) ;
#119 = ADVANCED_FACE ( 'NONE', ( #29 ), #57, .T. ) ;
#120 = DIRECTION ( 'NONE',  ( 0.000000000000000000, 0.000000000000000000, 1.000000000000000000 ) ) ;
#121 = EDGE_LOOP ( 'NONE', ( #143, #83, #190, #192 ) ) ;
#122 = ORIENTED_EDGE ( 'NONE', *, *, #144, .F. ) ;
#123 = FACE_OUTER_BOUND ( 'NONE', #121, .T. ) ;
#124 = APPROVAL_PERSON_ORGANIZATION ( #111, #172, #199 ) ;
#125 = DIRECTION ( 'NONE',  ( 0.000000000000000000, 0.000000000000000000, 1.000000000000000000 ) ) ;
#126 = CARTESIAN_POINT ( 'NONE',  ( 0.000000000000000000, 0.000000000000000000, 3.000000000000000000 ) ) ;
#127 = EDGE_CURVE ( 'NONE', #10, #149, #249, .T. ) ;
#128 = EDGE_CURVE ( 'NONE', #169, #70, #168, .T. ) ;
#129 = DIRECTION ( 'NONE',  ( -0.000000000000000000, -0.000000000000000000, -1.000000000000000000 ) ) ;
#130 = CIRCLE ( 'NONE', #213, 4.000000000000000000 ) ;
#131 = LOCAL_TIME ( 13, 37, 55.00000000000000000, #201 ) ;
#132 = CARTESIAN_POINT ( 'NONE',  ( 4.000000000000000000, 4.898587196589412829E-16, 3.000000000000000000 ) ) ;
#133 = ADVANCED_FACE ( 'NONE', ( #152 ), #151, .F. ) ;
#134 = DATE_AND_TIME ( #184, #170 ) ;
#135 = CC_DESIGN_PERSON_AND_ORGANIZATION_ASSIGNMENT ( #219, #200, ( #106 ) ) ;
#136 = AXIS2_PLACEMENT_3D ( 'NONE', #126, #197, #87 ) ;
#137 = AXIS2_PLACEMENT_3D ( 'NONE', #72, #125, #229 ) ;
#138 = CC_DESIGN_DATE_AND_TIME_ASSIGNMENT ( #115, #238, ( #89 ) ) ;
#139 = PERSON_AND_ORGANIZATION ( #38, #116 ) ;
#140 = DATE_AND_TIME ( #217, #131 ) ;
#141 = MECHANICAL_CONTEXT ( 'NONE', #101, 'mechanical' ) ;
#142 = AXIS2_PLACEMENT_3D ( 'NONE', #71, #202, #5 ) ;
#143 = ORIENTED_EDGE ( 'NONE', *, *, #175, .F. ) ;
#144 = EDGE_CURVE ( 'NONE', #10, #169, #230, .T. ) ;
#145 = AXIS2_PLACEMENT_3D ( 'NONE', #247, #102, #31 ) ;
#146 = AXIS2_PLACEMENT_3D ( 'NONE', #253, #129, #86 ) ;
#147 = ORIENTED_EDGE ( 'NONE', *, *, #85, .T. ) ;
#148 = LOCAL_TIME ( 13, 37, 55.00000000000000000, #216 ) ;
#149 = VERTEX_POINT ( 'NONE', #251 ) ;
#150 = ORIENTED_EDGE ( 'NONE', *, *, #20, .T. ) ;
#151 = PLANE ( 'NONE',  #16 ) ;
#152 = FACE_OUTER_BOUND ( 'NONE', #91, .T. ) ;
#153 = CC_DESIGN_DATE_AND_TIME_ASSIGNMENT ( #140, #78, ( #106 ) ) ;
#154 = FACE_OUTER_BOUND ( 'NONE', #8, .T. ) ;
#155 = AXIS2_PLACEMENT_3D ( 'NONE', #4, #162, #156 ) ;
#156 = DIRECTION ( 'NONE',  ( 1.000000000000000000, 0.000000000000000000, 0.000000000000000000 ) ) ;
#157 = SECURITY_CLASSIFICATION_LEVEL ( 'unclassified' ) ;
#158 = CC_DESIGN_PERSON_AND_ORGANIZATION_ASSIGNMENT ( #139, #43, ( #35 ) ) ;
#159 = PERSON_AND_ORGANIZATION_ROLE ( 'design_supplier' ) ;
#160 = APPROVAL_ROLE ( '' ) ;
#161 = ADVANCED_FACE ( 'NONE', ( #154 ), #195, .T. ) ;
#162 = DIRECTION ( 'NONE',  ( 0.000000000000000000, 0.000000000000000000, 1.000000000000000000 ) ) ;
#163 = ORIENTED_EDGE ( 'NONE', *, *, #203, .T. ) ;
#164 = VERTEX_POINT ( 'NONE', #215 ) ;
#165 = CARTESIAN_POINT ( 'NONE',  ( -4.000000000000000000, 0.000000000000000000, 3.000000000000000000 ) ) ;
#166 = DESIGN_CONTEXT ( 'detailed design', #33, 'design' ) ;
#167 = ORIENTED_EDGE ( 'NONE', *, *, #128, .F. ) ;
#168 = CIRCLE ( 'NONE', #174, 4.000000000000000000 ) ;
#169 = VERTEX_POINT ( 'NONE', #214 ) ;
#170 = LOCAL_TIME ( 13, 37, 55.00000000000000000, #255 ) ;
#171 = ORIENTED_EDGE ( 'NONE', *, *, #175, .T. ) ;
#172 = APPROVAL ( #235, 'NEURÈENÝ' ) ;
#173 = DIRECTION ( 'NONE',  ( -0.000000000000000000, -0.000000000000000000, -1.000000000000000000 ) ) ;
#174 = AXIS2_PLACEMENT_3D ( 'NONE', #194, #19, #88 ) ;
#175 = EDGE_CURVE ( 'NONE', #164, #28, #236, .T. ) ;
#176 = DIRECTION ( 'NONE',  ( 1.000000000000000000, 0.000000000000000000, 0.000000000000000000 ) ) ;
#177 = CC_DESIGN_PERSON_AND_ORGANIZATION_ASSIGNMENT ( #79, #25, ( #47 ) ) ;
#178 = CARTESIAN_POINT ( 'NONE',  ( 0.000000000000000000, 0.000000000000000000, 0.000000000000000000 ) ) ;
#179 = FACE_OUTER_BOUND ( 'NONE', #221, .T. ) ;
#180 = EDGE_LOOP ( 'NONE', ( #204, #68, #187, #226 ) ) ;
#181 = MANIFOLD_SOLID_BREP ( 'Pøidat vysunutím3', #223 ) ;
#182 = VECTOR ( 'NONE', #99, 1000.000000000000000 ) ;
#183 = VECTOR ( 'NONE', #173, 1000.000000000000000 ) ;
#184 = CALENDAR_DATE ( 2023, 12, 2 ) ;
#185 = EDGE_CURVE ( 'NONE', #28, #225, #209, .T. ) ;
#186 = APPROVAL ( #113, 'NEURÈENÝ' ) ;
#187 = ORIENTED_EDGE ( 'NONE', *, *, #128, .T. ) ;
#188 = AXIS2_PLACEMENT_3D ( 'NONE', #51, #120, #206 ) ;
#189 = FACE_OUTER_BOUND ( 'NONE', #100, .T. ) ;
#190 = ORIENTED_EDGE ( 'NONE', *, *, #252, .T. ) ;
#191 = ORIENTED_EDGE ( 'NONE', *, *, #185, .T. ) ;
#192 = ORIENTED_EDGE ( 'NONE', *, *, #185, .F. ) ;
#193 = CC_DESIGN_APPROVAL ( #233, ( #89 ) ) ;
#194 = CARTESIAN_POINT ( 'NONE',  ( 0.000000000000000000, 0.000000000000000000, 0.000000000000000000 ) ) ;
#195 = CYLINDRICAL_SURFACE ( 'NONE', #146, 2.000000000000000000 ) ;
#196 = CARTESIAN_POINT ( 'NONE',  ( 0.000000000000000000, 0.000000000000000000, 1000.000000000000000 ) ) ;
#197 = DIRECTION ( 'NONE',  ( 0.000000000000000000, 0.000000000000000000, 1.000000000000000000 ) ) ;
#198 = APPROVAL_PERSON_ORGANIZATION ( #60, #233, #96 ) ;
#199 = APPROVAL_ROLE ( '' ) ;
#200 = PERSON_AND_ORGANIZATION_ROLE ( 'creator' ) ;
#201 = COORDINATED_UNIVERSAL_TIME_OFFSET ( 1, 0, .AHEAD. ) ;
#202 = DIRECTION ( 'NONE',  ( 0.000000000000000000, 0.000000000000000000, 1.000000000000000000 ) ) ;
#203 = EDGE_CURVE ( 'NONE', #149, #10, #130, .T. ) ;
#204 = ORIENTED_EDGE ( 'NONE', *, *, #127, .F. ) ;
#205 = VECTOR ( 'NONE', #40, 1000.000000000000000 ) ;
#206 = DIRECTION ( 'NONE',  ( 1.000000000000000000, 0.000000000000000000, 0.000000000000000000 ) ) ;
#207 = ORIENTED_EDGE ( 'NONE', *, *, #69, .F. ) ;
#208 = LINE ( 'NONE', #165, #2 ) ;
#209 = LINE ( 'NONE', #39, #183 ) ;
#210 = DIRECTION ( 'NONE',  ( 1.000000000000000000, 0.000000000000000000, 0.000000000000000000 ) ) ;
#211 = CYLINDRICAL_SURFACE ( 'NONE', #12, 2.000000000000000000 ) ;
#212 = CIRCLE ( 'NONE', #145, 4.000000000000000000 ) ;
#213 = AXIS2_PLACEMENT_3D ( 'NONE', #110, #74, #210 ) ;
#214 = CARTESIAN_POINT ( 'NONE',  ( 4.000000000000000000, 4.898587196589412829E-16, 0.000000000000000000 ) ) ;
#215 = CARTESIAN_POINT ( 'NONE',  ( 2.000000000000000000, 2.449293598294706414E-16, 1000.000000000000000 ) ) ;
#216 = COORDINATED_UNIVERSAL_TIME_OFFSET ( 1, 0, .AHEAD. ) ;
#217 = CALENDAR_DATE ( 2023, 12, 2 ) ;
#218 = SHAPE_DEFINITION_REPRESENTATION ( #56, #66 ) ;
#219 = PERSON_AND_ORGANIZATION ( #38, #116 ) ;
#220 = CC_DESIGN_SECURITY_CLASSIFICATION ( #89, ( #47 ) ) ;
#221 = EDGE_LOOP ( 'NONE', ( #82, #171 ) ) ;
#222 = DIRECTION ( 'NONE',  ( -1.000000000000000000, 0.000000000000000000, 0.000000000000000000 ) ) ;
#223 = CLOSED_SHELL ( 'NONE', ( #224, #119, #77, #24, #133, #161, #227 ) ) ;
#224 = ADVANCED_FACE ( 'NONE', ( #123 ), #211, .T. ) ;
#225 = VERTEX_POINT ( 'NONE', #34 ) ;
#226 = ORIENTED_EDGE ( 'NONE', *, *, #7, .F. ) ;
#227 = ADVANCED_FACE ( 'NONE', ( #179 ), #248, .T. ) ;
#228 = CARTESIAN_POINT ( 'NONE',  ( 0.000000000000000000, 0.000000000000000000, 1000.000000000000000 ) ) ;
#229 = DIRECTION ( 'NONE',  ( 1.000000000000000000, 0.000000000000000000, 0.000000000000000000 ) ) ;
#230 = LINE ( 'NONE', #132, #205 ) ;
#231 = AXIS2_PLACEMENT_3D ( 'NONE', #18, #107, #176 ) ;
#232 = DIRECTION ( 'NONE',  ( 0.000000000000000000, 0.000000000000000000, 1.000000000000000000 ) ) ;
#233 = APPROVAL ( #45, 'NEURÈENÝ' ) ;
#234 = CALENDAR_DATE ( 2023, 12, 2 ) ;
#235 = APPROVAL_STATUS ( 'not_yet_approved' ) ;
#236 = CIRCLE ( 'NONE', #37, 2.000000000000000000 ) ;
#237 = CC_DESIGN_PERSON_AND_ORGANIZATION_ASSIGNMENT ( #239, #159, ( #47 ) ) ;
#238 = DATE_TIME_ROLE ( 'classification_date' ) ;
#239 = PERSON_AND_ORGANIZATION ( #38, #116 ) ;
#240 = EDGE_CURVE ( 'NONE', #28, #164, #23, .T. ) ;
#241 = CC_DESIGN_APPROVAL ( #186, ( #106 ) ) ;
#242 = LINE ( 'NONE', #64, #182 ) ;
#243 = CARTESIAN_POINT ( 'NONE',  ( 0.000000000000000000, 0.000000000000000000, 3.000000000000000000 ) ) ;
#244 = ORIENTED_EDGE ( 'NONE', *, *, #240, .F. ) ;
#245 = LOCAL_TIME ( 13, 37, 55.00000000000000000, #76 ) ;
#246 = EDGE_LOOP ( 'NONE', ( #163, #90 ) ) ;
#247 = CARTESIAN_POINT ( 'NONE',  ( 0.000000000000000000, 0.000000000000000000, 0.000000000000000000 ) ) ;
#248 = PLANE ( 'NONE',  #94 ) ;
#249 = CIRCLE ( 'NONE', #136, 4.000000000000000000 ) ;
#250 =( NAMED_UNIT ( * ) PLANE_ANGLE_UNIT ( ) SI_UNIT ( $, .RADIAN. ) );
#251 = CARTESIAN_POINT ( 'NONE',  ( -4.000000000000000000, 0.000000000000000000, 3.000000000000000000 ) ) ;
#252 = EDGE_CURVE ( 'NONE', #53, #225, #61, .T. ) ;
#253 = CARTESIAN_POINT ( 'NONE',  ( 0.000000000000000000, 0.000000000000000000, 1000.000000000000000 ) ) ;
#254 = DIRECTION ( 'NONE',  ( 1.000000000000000000, 0.000000000000000000, -0.000000000000000000 ) ) ;
#255 = COORDINATED_UNIVERSAL_TIME_OFFSET ( 1, 0, .AHEAD. ) ;
ENDSEC;
END-ISO-10303-21;
