ISO-10303-21;
HEADER;
FILE_DESCRIPTION (( 'STEP AP203' ),
    '1' );
FILE_NAME ('962f.STEP',
    '2023-02-12T12:34:58',
    ( '' ),
    ( '' ),
    'SwSTEP 2.0',
    'SolidWorks 2019',
    '' );
FILE_SCHEMA (( 'CONFIG_CONTROL_DESIGN' ));
ENDSEC;

DATA;
#1 = DIRECTION ( 'NONE',  ( 1.000000000000000000, 0.000000000000000000, -0.000000000000000000 ) ) ;
#2 = CARTESIAN_POINT ( 'NONE',  ( -4.000000000000000000, 0.000000000000000000, 3.000000000000000000 ) ) ;
#3 = AXIS2_PLACEMENT_3D ( 'NONE', #198, #201, #190 ) ;
#4 = AXIS2_PLACEMENT_3D ( 'NONE', #25, #106, #186 ) ;
#5 = CARTESIAN_POINT ( 'NONE',  ( -2.100000000000000089, 0.000000000000000000, 630.0000000000000000 ) ) ;
#6 = CARTESIAN_POINT ( 'NONE',  ( 0.000000000000000000, 0.000000000000000000, 3.000000000000000000 ) ) ;
#7 = DIRECTION ( 'NONE',  ( 1.000000000000000000, 0.000000000000000000, 0.000000000000000000 ) ) ;
#8 = AXIS2_PLACEMENT_3D ( 'NONE', #237, #132, #65 ) ;
#9 = AXIS2_PLACEMENT_3D ( 'NONE', #48, #29, #150 ) ;
#10 = EDGE_LOOP ( 'NONE', ( #122, #12 ) ) ;
#11 = ADVANCED_FACE ( 'NONE', ( #38 ), #140, .T. ) ;
#12 = ORIENTED_EDGE ( 'NONE', *, *, #228, .T. ) ;
#13 = PERSON_AND_ORGANIZATION ( #69, #226 ) ;
#14 = PRODUCT_RELATED_PRODUCT_CATEGORY ( 'detail', '', ( #238 ) ) ;
#15 = VERTEX_POINT ( 'NONE', #23 ) ;
#16 = CIRCLE ( 'NONE', #184, 2.100000000000000089 ) ;
#17 = LOCAL_TIME ( 13, 34, 58.00000000000000000, #121 ) ;
#18 = EDGE_LOOP ( 'NONE', ( #139, #250 ) ) ;
#19 = CARTESIAN_POINT ( 'NONE',  ( 2.100000000000000089, 2.571758278209441957E-16, 3.000000000000000000 ) ) ;
#20 = ADVANCED_FACE ( 'NONE', ( #86 ), #44, .T. ) ;
#21 = APPROVAL_DATE_TIME ( #59, #233 ) ;
#22 = SECURITY_CLASSIFICATION_LEVEL ( 'unclassified' ) ;
#23 = CARTESIAN_POINT ( 'NONE',  ( 4.000000000000000000, 4.898587196589412829E-16, 3.000000000000000000 ) ) ;
#24 = CYLINDRICAL_SURFACE ( 'NONE', #88, 2.100000000000000089 ) ;
#25 = CARTESIAN_POINT ( 'NONE',  ( 0.000000000000000000, 0.000000000000000000, 0.000000000000000000 ) ) ;
#26 = AXIS2_PLACEMENT_3D ( 'NONE', #231, #208, #27 ) ;
#27 = DIRECTION ( 'NONE',  ( 1.000000000000000000, 0.000000000000000000, 0.000000000000000000 ) ) ;
#28 = CC_DESIGN_SECURITY_CLASSIFICATION ( #153, ( #64 ) ) ;
#29 = DIRECTION ( 'NONE',  ( 0.000000000000000000, 0.000000000000000000, 1.000000000000000000 ) ) ;
#30 = DIRECTION ( 'NONE',  ( 1.000000000000000000, 0.000000000000000000, 0.000000000000000000 ) ) ;
#31 = AXIS2_PLACEMENT_3D ( 'NONE', #61, #41, #1 ) ;
#32 = LOCAL_TIME ( 13, 34, 58.00000000000000000, #197 ) ;
#33 = VERTEX_POINT ( 'NONE', #2 ) ;
#34 = APPLICATION_CONTEXT ( 'configuration controlled 3d designs of mechanical parts and assemblies' ) ;
#35 = ORIENTED_EDGE ( 'NONE', *, *, #187, .T. ) ;
#36 = APPROVAL_ROLE ( '' ) ;
#37 = AXIS2_PLACEMENT_3D ( 'NONE', #93, #172, #7 ) ;
#38 = FACE_OUTER_BOUND ( 'NONE', #176, .T. ) ;
#39 = EDGE_LOOP ( 'NONE', ( #118, #136, #144, #58 ) ) ;
#40 = PERSON_AND_ORGANIZATION ( #69, #226 ) ;
#41 = DIRECTION ( 'NONE',  ( 0.000000000000000000, 0.000000000000000000, 1.000000000000000000 ) ) ;
#42 = ADVANCED_FACE ( 'NONE', ( #249 ), #105, .T. ) ;
#43 = PERSON_AND_ORGANIZATION_ROLE ( 'design_owner' ) ;
#44 = CYLINDRICAL_SURFACE ( 'NONE', #3, 4.000000000000000000 ) ;
#45 = DIRECTION ( 'NONE',  ( -0.000000000000000000, -0.000000000000000000, -1.000000000000000000 ) ) ;
#46 = CARTESIAN_POINT ( 'NONE',  ( -4.000000000000000000, 0.000000000000000000, 3.000000000000000000 ) ) ;
#47 = CARTESIAN_POINT ( 'NONE',  ( -4.000000000000000000, 0.000000000000000000, 0.000000000000000000 ) ) ;
#48 = CARTESIAN_POINT ( 'NONE',  ( 0.000000000000000000, 0.000000000000000000, 3.000000000000000000 ) ) ;
#49 = CIRCLE ( 'NONE', #26, 4.000000000000000000 ) ;
#50 = ORIENTED_EDGE ( 'NONE', *, *, #117, .T. ) ;
#51 =( GEOMETRIC_REPRESENTATION_CONTEXT ( 3 ) GLOBAL_UNCERTAINTY_ASSIGNED_CONTEXT ( ( #157 ) ) GLOBAL_UNIT_ASSIGNED_CONTEXT ( ( #134, #195, #223 ) ) REPRESENTATION_CONTEXT ( 'NONE', 'WORKASPACE' ) );
#52 = ORIENTED_EDGE ( 'NONE', *, *, #234, .T. ) ;
#53 = ORIENTED_EDGE ( 'NONE', *, *, #117, .F. ) ;
#54 = ORIENTED_EDGE ( 'NONE', *, *, #234, .F. ) ;
#55 = APPROVAL_STATUS ( 'not_yet_approved' ) ;
#56 = CC_DESIGN_DATE_AND_TIME_ASSIGNMENT ( #101, #181, ( #153 ) ) ;
#57 = VERTEX_POINT ( 'NONE', #19 ) ;
#58 = ORIENTED_EDGE ( 'NONE', *, *, #131, .T. ) ;
#59 = DATE_AND_TIME ( #241, #17 ) ;
#60 = CARTESIAN_POINT ( 'NONE',  ( 2.100000000000000089, 2.571758278209441957E-16, 630.0000000000000000 ) ) ;
#61 = CARTESIAN_POINT ( 'NONE',  ( 0.000000000000000000, 0.000000000000000000, 3.000000000000000000 ) ) ;
#62 = COORDINATED_UNIVERSAL_TIME_OFFSET ( 1, 0, .AHEAD. ) ;
#63 = DIRECTION ( 'NONE',  ( 1.000000000000000000, 0.000000000000000000, 0.000000000000000000 ) ) ;
#64 = PRODUCT_DEFINITION_FORMATION_WITH_SPECIFIED_SOURCE ( 'LIBOVOLNÝ', '', #238, .NOT_KNOWN. ) ;
#65 = DIRECTION ( 'NONE',  ( 1.000000000000000000, 0.000000000000000000, 0.000000000000000000 ) ) ;
#66 = CARTESIAN_POINT ( 'NONE',  ( 4.000000000000000000, 4.898587196589412829E-16, 0.000000000000000000 ) ) ;
#67 = ADVANCED_FACE ( 'NONE', ( #100 ), #168, .F. ) ;
#68 = ADVANCED_FACE ( 'NONE', ( #124 ), #24, .T. ) ;
#69 = PERSON ( 'NEURÈENÝ', 'NEURÈENÝ', 'NEURÈENÝ', ('NEURÈENÝ'), ('NEURÈENÝ'), ('NEURÈENÝ') ) ;
#70 = ADVANCED_FACE ( 'NONE', ( #84, #162 ), #164, .T. ) ;
#71 = CIRCLE ( 'NONE', #152, 2.100000000000000089 ) ;
#72 = LOCAL_TIME ( 13, 34, 58.00000000000000000, #255 ) ;
#73 = APPLICATION_CONTEXT ( 'configuration controlled 3d designs of mechanical parts and assemblies' ) ;
#74 = CIRCLE ( 'NONE', #155, 4.000000000000000000 ) ;
#75 = ORIENTED_EDGE ( 'NONE', *, *, #187, .F. ) ;
#76 = ORIENTED_EDGE ( 'NONE', *, *, #169, .F. ) ;
#77 = COORDINATED_UNIVERSAL_TIME_OFFSET ( 1, 0, .AHEAD. ) ;
#78 = DIRECTION ( 'NONE',  ( 0.000000000000000000, 0.000000000000000000, 1.000000000000000000 ) ) ;
#79 = PERSON_AND_ORGANIZATION ( #69, #226 ) ;
#80 = DIRECTION ( 'NONE',  ( -0.000000000000000000, -0.000000000000000000, -1.000000000000000000 ) ) ;
#81 = CIRCLE ( 'NONE', #214, 2.100000000000000089 ) ;
#82 = EDGE_CURVE ( 'NONE', #33, #15, #74, .T. ) ;
#83 = PERSON_AND_ORGANIZATION ( #69, #226 ) ;
#84 = FACE_BOUND ( 'NONE', #18, .T. ) ;
#85 = MECHANICAL_CONTEXT ( 'NONE', #34, 'mechanical' ) ;
#86 = FACE_OUTER_BOUND ( 'NONE', #107, .T. ) ;
#87 = APPLICATION_PROTOCOL_DEFINITION ( 'international standard', 'config_control_design', 1994, #73 ) ;
#88 = AXIS2_PLACEMENT_3D ( 'NONE', #204, #80, #220 ) ;
#89 = CC_DESIGN_PERSON_AND_ORGANIZATION_ASSIGNMENT ( #83, #163, ( #64 ) ) ;
#90 = CARTESIAN_POINT ( 'NONE',  ( 2.100000000000000089, 2.571758278209441957E-16, 630.0000000000000000 ) ) ;
#91 = DESIGN_CONTEXT ( 'detailed design', #73, 'design' ) ;
#92 = CARTESIAN_POINT ( 'NONE',  ( 0.000000000000000000, 0.000000000000000000, 630.0000000000000000 ) ) ;
#93 = CARTESIAN_POINT ( 'NONE',  ( 0.000000000000000000, 0.000000000000000000, 0.000000000000000000 ) ) ;
#94 = CC_DESIGN_APPROVAL ( #133, ( #153 ) ) ;
#95 = EDGE_LOOP ( 'NONE', ( #50, #119 ) ) ;
#96 = VERTEX_POINT ( 'NONE', #146 ) ;
#97 = CLOSED_SHELL ( 'NONE', ( #11, #20, #137, #70, #67, #68, #42 ) ) ;
#98 = EDGE_LOOP ( 'NONE', ( #54, #53, #35, #120 ) ) ;
#99 = APPROVAL_STATUS ( 'not_yet_approved' ) ;
#100 = FACE_OUTER_BOUND ( 'NONE', #115, .T. ) ;
#101 = DATE_AND_TIME ( #196, #32 ) ;
#102 = APPROVAL_DATE_TIME ( #200, #224 ) ;
#103 = ORIENTED_EDGE ( 'NONE', *, *, #246, .F. ) ;
#104 = PERSON_AND_ORGANIZATION ( #69, #226 ) ;
#105 = PLANE ( 'NONE',  #194 ) ;
#106 = DIRECTION ( 'NONE',  ( 0.000000000000000000, 0.000000000000000000, 1.000000000000000000 ) ) ;
#107 = EDGE_LOOP ( 'NONE', ( #180, #236, #178, #242 ) ) ;
#108 = EDGE_CURVE ( 'NONE', #96, #57, #16, .T. ) ;
#109 = VECTOR ( 'NONE', #211, 1000.000000000000000 ) ;
#110 = CARTESIAN_POINT ( 'NONE',  ( 4.000000000000000000, 4.898587196589412829E-16, 3.000000000000000000 ) ) ;
#111 = CARTESIAN_POINT ( 'NONE',  ( 0.000000000000000000, 0.000000000000000000, 3.000000000000000000 ) ) ;
#112 = DIRECTION ( 'NONE',  ( -0.000000000000000000, -0.000000000000000000, -1.000000000000000000 ) ) ;
#113 = CC_DESIGN_DATE_AND_TIME_ASSIGNMENT ( #205, #167, ( #182 ) ) ;
#114 = VERTEX_POINT ( 'NONE', #60 ) ;
#115 = EDGE_LOOP ( 'NONE', ( #215, #76 ) ) ;
#116 = DATE_AND_TIME ( #179, #174 ) ;
#117 = EDGE_CURVE ( 'NONE', #156, #114, #125, .T. ) ;
#118 = ORIENTED_EDGE ( 'NONE', *, *, #160, .F. ) ;
#119 = ORIENTED_EDGE ( 'NONE', *, *, #246, .T. ) ;
#120 = ORIENTED_EDGE ( 'NONE', *, *, #108, .T. ) ;
#121 = COORDINATED_UNIVERSAL_TIME_OFFSET ( 1, 0, .AHEAD. ) ;
#122 = ORIENTED_EDGE ( 'NONE', *, *, #82, .T. ) ;
#123 = PERSON_AND_ORGANIZATION ( #69, #226 ) ;
#124 = FACE_OUTER_BOUND ( 'NONE', #98, .T. ) ;
#125 = CIRCLE ( 'NONE', #8, 2.100000000000000089 ) ;
#126 = APPROVAL_ROLE ( '' ) ;
#127 = CARTESIAN_POINT ( 'NONE',  ( 0.000000000000000000, 0.000000000000000000, 3.000000000000000000 ) ) ;
#128 = DIRECTION ( 'NONE',  ( 0.000000000000000000, 0.000000000000000000, 1.000000000000000000 ) ) ;
#129 = CIRCLE ( 'NONE', #9, 4.000000000000000000 ) ;
#130 = LINE ( 'NONE', #90, #161 ) ;
#131 = EDGE_CURVE ( 'NONE', #235, #248, #49, .T. ) ;
#132 = DIRECTION ( 'NONE',  ( 0.000000000000000000, 0.000000000000000000, 1.000000000000000000 ) ) ;
#133 = APPROVAL ( #55, 'NEURÈENÝ' ) ;
#134 =( LENGTH_UNIT ( ) NAMED_UNIT ( * ) SI_UNIT ( .MILLI., .METRE. ) );
#135 = CIRCLE ( 'NONE', #37, 4.000000000000000000 ) ;
#136 = ORIENTED_EDGE ( 'NONE', *, *, #82, .F. ) ;
#137 = ADVANCED_FACE ( 'NONE', ( #212 ), #227, .T. ) ;
#138 = MANIFOLD_SOLID_BREP ( 'Pøidat vysunutím3', #97 ) ;
#139 = ORIENTED_EDGE ( 'NONE', *, *, #108, .F. ) ;
#140 = CYLINDRICAL_SURFACE ( 'NONE', #253, 2.100000000000000089 ) ;
#141 = DIRECTION ( 'NONE',  ( -1.000000000000000000, 0.000000000000000000, 0.000000000000000000 ) ) ;
#142 = CC_DESIGN_PERSON_AND_ORGANIZATION_ASSIGNMENT ( #40, #203, ( #64 ) ) ;
#143 = PERSON_AND_ORGANIZATION ( #69, #226 ) ;
#144 = ORIENTED_EDGE ( 'NONE', *, *, #148, .T. ) ;
#145 = ADVANCED_BREP_SHAPE_REPRESENTATION ( '962f', ( #138, #4 ), #51 ) ;
#146 = CARTESIAN_POINT ( 'NONE',  ( -2.100000000000000089, 0.000000000000000000, 3.000000000000000000 ) ) ;
#147 = APPROVAL_PERSON_ORGANIZATION ( #79, #233, #159 ) ;
#148 = EDGE_CURVE ( 'NONE', #33, #235, #149, .T. ) ;
#149 = LINE ( 'NONE', #46, #232 ) ;
#150 = DIRECTION ( 'NONE',  ( 1.000000000000000000, 0.000000000000000000, 0.000000000000000000 ) ) ;
#151 = CARTESIAN_POINT ( 'NONE',  ( -2.100000000000000089, 0.000000000000000000, 630.0000000000000000 ) ) ;
#152 = AXIS2_PLACEMENT_3D ( 'NONE', #6, #229, #193 ) ;
#153 = SECURITY_CLASSIFICATION ( '', '', #22 ) ;
#154 = EDGE_CURVE ( 'NONE', #57, #96, #71, .T. ) ;
#155 = AXIS2_PLACEMENT_3D ( 'NONE', #166, #240, #63 ) ;
#156 = VERTEX_POINT ( 'NONE', #5 ) ;
#157 = UNCERTAINTY_MEASURE_WITH_UNIT (LENGTH_MEASURE( 1.000000000000000082E-05 ), #134, 'distance_accuracy_value', 'NONE');
#158 = DIRECTION ( 'NONE',  ( 1.000000000000000000, 0.000000000000000000, 0.000000000000000000 ) ) ;
#159 = APPROVAL_ROLE ( '' ) ;
#160 = EDGE_CURVE ( 'NONE', #15, #248, #243, .T. ) ;
#161 = VECTOR ( 'NONE', #45, 1000.000000000000000 ) ;
#162 = FACE_OUTER_BOUND ( 'NONE', #10, .T. ) ;
#163 = PERSON_AND_ORGANIZATION_ROLE ( 'creator' ) ;
#164 = PLANE ( 'NONE',  #31 ) ;
#165 = CALENDAR_DATE ( 2023, 12, 2 ) ;
#166 = CARTESIAN_POINT ( 'NONE',  ( 0.000000000000000000, 0.000000000000000000, 3.000000000000000000 ) ) ;
#167 = DATE_TIME_ROLE ( 'creation_date' ) ;
#168 = PLANE ( 'NONE',  #191 ) ;
#169 = EDGE_CURVE ( 'NONE', #248, #235, #135, .T. ) ;
#170 = DIRECTION ( 'NONE',  ( -0.000000000000000000, -0.000000000000000000, -1.000000000000000000 ) ) ;
#171 = DIRECTION ( 'NONE',  ( -0.000000000000000000, -0.000000000000000000, -1.000000000000000000 ) ) ;
#172 = DIRECTION ( 'NONE',  ( 0.000000000000000000, 0.000000000000000000, 1.000000000000000000 ) ) ;
#173 = AXIS2_PLACEMENT_3D ( 'NONE', #111, #112, #244 ) ;
#174 = LOCAL_TIME ( 13, 34, 58.00000000000000000, #77 ) ;
#175 = SHAPE_DEFINITION_REPRESENTATION ( #202, #145 ) ;
#176 = EDGE_LOOP ( 'NONE', ( #103, #52, #245, #75 ) ) ;
#177 = CC_DESIGN_APPROVAL ( #224, ( #182 ) ) ;
#178 = ORIENTED_EDGE ( 'NONE', *, *, #169, .T. ) ;
#179 = CALENDAR_DATE ( 2023, 12, 2 ) ;
#180 = ORIENTED_EDGE ( 'NONE', *, *, #228, .F. ) ;
#181 = DATE_TIME_ROLE ( 'classification_date' ) ;
#182 = PRODUCT_DEFINITION ( 'NEZNÁMÝ', '', #64, #91 ) ;
#183 = APPLICATION_PROTOCOL_DEFINITION ( 'international standard', 'config_control_design', 1994, #34 ) ;
#184 = AXIS2_PLACEMENT_3D ( 'NONE', #127, #207, #158 ) ;
#185 = DIRECTION ( 'NONE',  ( 0.000000000000000000, 0.000000000000000000, 1.000000000000000000 ) ) ;
#186 = DIRECTION ( 'NONE',  ( 1.000000000000000000, 0.000000000000000000, 0.000000000000000000 ) ) ;
#187 = EDGE_CURVE ( 'NONE', #156, #96, #225, .T. ) ;
#188 = CARTESIAN_POINT ( 'NONE',  ( 0.000000000000000000, 0.000000000000000000, 630.0000000000000000 ) ) ;
#189 = PERSON_AND_ORGANIZATION_ROLE ( 'creator' ) ;
#190 = DIRECTION ( 'NONE',  ( -1.000000000000000000, 0.000000000000000000, 0.000000000000000000 ) ) ;
#191 = AXIS2_PLACEMENT_3D ( 'NONE', #254, #78, #252 ) ;
#192 = APPROVAL_PERSON_ORGANIZATION ( #239, #224, #126 ) ;
#193 = DIRECTION ( 'NONE',  ( 1.000000000000000000, 0.000000000000000000, 0.000000000000000000 ) ) ;
#194 = AXIS2_PLACEMENT_3D ( 'NONE', #222, #185, #218 ) ;
#195 =( NAMED_UNIT ( * ) PLANE_ANGLE_UNIT ( ) SI_UNIT ( $, .RADIAN. ) );
#196 = CALENDAR_DATE ( 2023, 12, 2 ) ;
#197 = COORDINATED_UNIVERSAL_TIME_OFFSET ( 1, 0, .AHEAD. ) ;
#198 = CARTESIAN_POINT ( 'NONE',  ( 0.000000000000000000, 0.000000000000000000, 3.000000000000000000 ) ) ;
#199 = PERSON_AND_ORGANIZATION_ROLE ( 'classification_officer' ) ;
#200 = DATE_AND_TIME ( #251, #72 ) ;
#201 = DIRECTION ( 'NONE',  ( -0.000000000000000000, -0.000000000000000000, -1.000000000000000000 ) ) ;
#202 = PRODUCT_DEFINITION_SHAPE ( 'NONE', 'NONE',  #182 ) ;
#203 = PERSON_AND_ORGANIZATION_ROLE ( 'design_supplier' ) ;
#204 = CARTESIAN_POINT ( 'NONE',  ( 0.000000000000000000, 0.000000000000000000, 630.0000000000000000 ) ) ;
#205 = DATE_AND_TIME ( #165, #210 ) ;
#206 = CC_DESIGN_PERSON_AND_ORGANIZATION_ASSIGNMENT ( #123, #189, ( #182 ) ) ;
#207 = DIRECTION ( 'NONE',  ( 0.000000000000000000, 0.000000000000000000, 1.000000000000000000 ) ) ;
#208 = DIRECTION ( 'NONE',  ( 0.000000000000000000, 0.000000000000000000, 1.000000000000000000 ) ) ;
#209 = VECTOR ( 'NONE', #171, 1000.000000000000000 ) ;
#210 = LOCAL_TIME ( 13, 34, 58.00000000000000000, #62 ) ;
#211 = DIRECTION ( 'NONE',  ( -0.000000000000000000, -0.000000000000000000, -1.000000000000000000 ) ) ;
#212 = FACE_OUTER_BOUND ( 'NONE', #39, .T. ) ;
#213 = CC_DESIGN_APPROVAL ( #233, ( #64 ) ) ;
#214 = AXIS2_PLACEMENT_3D ( 'NONE', #92, #128, #30 ) ;
#215 = ORIENTED_EDGE ( 'NONE', *, *, #131, .F. ) ;
#216 = APPROVAL_PERSON_ORGANIZATION ( #13, #133, #36 ) ;
#217 = DIRECTION ( 'NONE',  ( -0.000000000000000000, -0.000000000000000000, -1.000000000000000000 ) ) ;
#218 = DIRECTION ( 'NONE',  ( 1.000000000000000000, 0.000000000000000000, -0.000000000000000000 ) ) ;
#219 = APPROVAL_STATUS ( 'not_yet_approved' ) ;
#220 = DIRECTION ( 'NONE',  ( -1.000000000000000000, 0.000000000000000000, 0.000000000000000000 ) ) ;
#221 = CC_DESIGN_PERSON_AND_ORGANIZATION_ASSIGNMENT ( #143, #43, ( #238 ) ) ;
#222 = CARTESIAN_POINT ( 'NONE',  ( 0.000000000000000000, 0.000000000000000000, 630.0000000000000000 ) ) ;
#223 =( NAMED_UNIT ( * ) SI_UNIT ( $, .STERADIAN. ) SOLID_ANGLE_UNIT ( ) );
#224 = APPROVAL ( #99, 'NEURÈENÝ' ) ;
#225 = LINE ( 'NONE', #151, #209 ) ;
#226 = ORGANIZATION ( 'NEURÈENÝ', 'NEURÈENÝ', '' ) ;
#227 = CYLINDRICAL_SURFACE ( 'NONE', #173, 4.000000000000000000 ) ;
#228 = EDGE_CURVE ( 'NONE', #15, #33, #129, .T. ) ;
#229 = DIRECTION ( 'NONE',  ( 0.000000000000000000, 0.000000000000000000, 1.000000000000000000 ) ) ;
#230 = CC_DESIGN_PERSON_AND_ORGANIZATION_ASSIGNMENT ( #104, #199, ( #153 ) ) ;
#231 = CARTESIAN_POINT ( 'NONE',  ( 0.000000000000000000, 0.000000000000000000, 0.000000000000000000 ) ) ;
#232 = VECTOR ( 'NONE', #170, 1000.000000000000000 ) ;
#233 = APPROVAL ( #219, 'NEURÈENÝ' ) ;
#234 = EDGE_CURVE ( 'NONE', #114, #57, #130, .T. ) ;
#235 = VERTEX_POINT ( 'NONE', #47 ) ;
#236 = ORIENTED_EDGE ( 'NONE', *, *, #160, .T. ) ;
#237 = CARTESIAN_POINT ( 'NONE',  ( 0.000000000000000000, 0.000000000000000000, 630.0000000000000000 ) ) ;
#238 = PRODUCT ( '962f', '962f', '', ( #85 ) ) ;
#239 = PERSON_AND_ORGANIZATION ( #69, #226 ) ;
#240 = DIRECTION ( 'NONE',  ( 0.000000000000000000, 0.000000000000000000, 1.000000000000000000 ) ) ;
#241 = CALENDAR_DATE ( 2023, 12, 2 ) ;
#242 = ORIENTED_EDGE ( 'NONE', *, *, #148, .F. ) ;
#243 = LINE ( 'NONE', #110, #109 ) ;
#244 = DIRECTION ( 'NONE',  ( -1.000000000000000000, 0.000000000000000000, 0.000000000000000000 ) ) ;
#245 = ORIENTED_EDGE ( 'NONE', *, *, #154, .T. ) ;
#246 = EDGE_CURVE ( 'NONE', #114, #156, #81, .T. ) ;
#247 = APPROVAL_DATE_TIME ( #116, #133 ) ;
#248 = VERTEX_POINT ( 'NONE', #66 ) ;
#249 = FACE_OUTER_BOUND ( 'NONE', #95, .T. ) ;
#250 = ORIENTED_EDGE ( 'NONE', *, *, #154, .F. ) ;
#251 = CALENDAR_DATE ( 2023, 12, 2 ) ;
#252 = DIRECTION ( 'NONE',  ( 1.000000000000000000, 0.000000000000000000, -0.000000000000000000 ) ) ;
#253 = AXIS2_PLACEMENT_3D ( 'NONE', #188, #217, #141 ) ;
#254 = CARTESIAN_POINT ( 'NONE',  ( 0.000000000000000000, 0.000000000000000000, 0.000000000000000000 ) ) ;
#255 = COORDINATED_UNIVERSAL_TIME_OFFSET ( 1, 0, .AHEAD. ) ;
ENDSEC;
END-ISO-10303-21;
