ISO-10303-21;
HEADER;
FILE_DESCRIPTION (( 'STEP AP203' ),
    '1' );
FILE_NAME ('2995.STEP',
    '2023-02-12T11:25:08',
    ( '' ),
    ( '' ),
    'SwSTEP 2.0',
    'SolidWorks 2019',
    '' );
FILE_SCHEMA (( 'CONFIG_CONTROL_DESIGN' ));
ENDSEC;

DATA;
#1 = CYLINDRICAL_SURFACE ( 'NONE', #152, 5.100000000000001421 ) ;
#2 = APPROVAL ( #148, 'NEURÈENÝ' ) ;
#3 = CIRCLE ( 'NONE', #193, 8.000000000000000000 ) ;
#4 = DIRECTION ( 'NONE',  ( 1.000000000000000000, 0.000000000000000000, 0.000000000000000000 ) ) ;
#5 = AXIS2_PLACEMENT_3D ( 'NONE', #218, #61, #44 ) ;
#6 = APPLICATION_CONTEXT ( 'configuration controlled 3d designs of mechanical parts and assemblies' ) ;
#7 = CC_DESIGN_DATE_AND_TIME_ASSIGNMENT ( #120, #227, ( #163 ) ) ;
#8 = ORIENTED_EDGE ( 'NONE', *, *, #162, .T. ) ;
#9 = APPLICATION_PROTOCOL_DEFINITION ( 'international standard', 'config_control_design', 1994, #235 ) ;
#10 = FACE_BOUND ( 'NONE', #87, .T. ) ;
#11 = AXIS2_PLACEMENT_3D ( 'NONE', #113, #55, #133 ) ;
#12 =( LENGTH_UNIT ( ) NAMED_UNIT ( * ) SI_UNIT ( .MILLI., .METRE. ) );
#13 = EDGE_CURVE ( 'NONE', #98, #116, #166, .T. ) ;
#14 = ORIENTED_EDGE ( 'NONE', *, *, #88, .T. ) ;
#15 = APPROVAL_DATE_TIME ( #142, #197 ) ;
#16 = LOCAL_TIME ( 12, 25, 8.000000000000000000, #188 ) ;
#17 = CARTESIAN_POINT ( 'NONE',  ( -8.000000000000000000, 0.000000000000000000, 5.000000000000000000 ) ) ;
#18 = CARTESIAN_POINT ( 'NONE',  ( 8.000000000000000000, 9.797174393178825657E-16, 5.000000000000000000 ) ) ;
#19 = CIRCLE ( 'NONE', #112, 8.000000000000000000 ) ;
#20 = FACE_OUTER_BOUND ( 'NONE', #203, .T. ) ;
#21 = CYLINDRICAL_SURFACE ( 'NONE', #107, 8.000000000000000000 ) ;
#22 = DIRECTION ( 'NONE',  ( 1.000000000000000000, 0.000000000000000000, 0.000000000000000000 ) ) ;
#23 = CARTESIAN_POINT ( 'NONE',  ( 0.000000000000000000, 0.000000000000000000, 5.000000000000000000 ) ) ;
#24 = EDGE_LOOP ( 'NONE', ( #159, #220, #200, #50 ) ) ;
#25 = MECHANICAL_CONTEXT ( 'NONE', #6, 'mechanical' ) ;
#26 = ORIENTED_EDGE ( 'NONE', *, *, #36, .T. ) ;
#27 = ORIENTED_EDGE ( 'NONE', *, *, #151, .F. ) ;
#28 = CIRCLE ( 'NONE', #41, 5.100000000000001421 ) ;
#29 = CARTESIAN_POINT ( 'NONE',  ( 5.100000000000001421, 6.245698675651502811E-16, 160.0000000000000000 ) ) ;
#30 = DATE_AND_TIME ( #33, #81 ) ;
#31 = FACE_OUTER_BOUND ( 'NONE', #196, .T. ) ;
#32 = VERTEX_POINT ( 'NONE', #246 ) ;
#33 = CALENDAR_DATE ( 2023, 12, 2 ) ;
#34 = LINE ( 'NONE', #47, #54 ) ;
#35 = COORDINATED_UNIVERSAL_TIME_OFFSET ( 1, 0, .AHEAD. ) ;
#36 = EDGE_CURVE ( 'NONE', #206, #98, #175, .T. ) ;
#37 = PLANE ( 'NONE',  #219 ) ;
#38 = CARTESIAN_POINT ( 'NONE',  ( 0.000000000000000000, 0.000000000000000000, 160.0000000000000000 ) ) ;
#39 = CARTESIAN_POINT ( 'NONE',  ( -8.000000000000000000, 0.000000000000000000, 0.000000000000000000 ) ) ;
#40 = DIRECTION ( 'NONE',  ( -0.000000000000000000, -0.000000000000000000, -1.000000000000000000 ) ) ;
#41 = AXIS2_PLACEMENT_3D ( 'NONE', #38, #212, #22 ) ;
#42 =( GEOMETRIC_REPRESENTATION_CONTEXT ( 3 ) GLOBAL_UNCERTAINTY_ASSIGNED_CONTEXT ( ( #214 ) ) GLOBAL_UNIT_ASSIGNED_CONTEXT ( ( #12, #183, #180 ) ) REPRESENTATION_CONTEXT ( 'NONE', 'WORKASPACE' ) );
#43 = CLOSED_SHELL ( 'NONE', ( #226, #248, #51, #192, #60, #146, #134 ) ) ;
#44 = DIRECTION ( 'NONE',  ( -1.000000000000000000, 0.000000000000000000, 0.000000000000000000 ) ) ;
#45 = ORIENTED_EDGE ( 'NONE', *, *, #13, .T. ) ;
#46 = CC_DESIGN_PERSON_AND_ORGANIZATION_ASSIGNMENT ( #108, #223, ( #163 ) ) ;
#47 = CARTESIAN_POINT ( 'NONE',  ( 5.100000000000001421, 6.245698675651502811E-16, 160.0000000000000000 ) ) ;
#48 = PERSON_AND_ORGANIZATION ( #128, #231 ) ;
#49 = CALENDAR_DATE ( 2023, 12, 2 ) ;
#50 = ORIENTED_EDGE ( 'NONE', *, *, #172, .T. ) ;
#51 = ADVANCED_FACE ( 'NONE', ( #234 ), #21, .T. ) ;
#52 = CARTESIAN_POINT ( 'NONE',  ( 0.000000000000000000, 0.000000000000000000, 5.000000000000000000 ) ) ;
#53 = DIRECTION ( 'NONE',  ( 0.000000000000000000, 0.000000000000000000, 1.000000000000000000 ) ) ;
#54 = VECTOR ( 'NONE', #119, 1000.000000000000000 ) ;
#55 = DIRECTION ( 'NONE',  ( 0.000000000000000000, 0.000000000000000000, 1.000000000000000000 ) ) ;
#56 = LINE ( 'NONE', #17, #199 ) ;
#57 = ORIENTED_EDGE ( 'NONE', *, *, #202, .T. ) ;
#58 = ORIENTED_EDGE ( 'NONE', *, *, #177, .F. ) ;
#59 = DIRECTION ( 'NONE',  ( 1.000000000000000000, 0.000000000000000000, 0.000000000000000000 ) ) ;
#60 = ADVANCED_FACE ( 'NONE', ( #178 ), #37, .F. ) ;
#61 = DIRECTION ( 'NONE',  ( -0.000000000000000000, -0.000000000000000000, -1.000000000000000000 ) ) ;
#62 = PERSON_AND_ORGANIZATION ( #128, #231 ) ;
#63 = VERTEX_POINT ( 'NONE', #155 ) ;
#64 = LOCAL_TIME ( 12, 25, 8.000000000000000000, #35 ) ;
#65 = CALENDAR_DATE ( 2023, 12, 2 ) ;
#66 = PERSON_AND_ORGANIZATION ( #128, #231 ) ;
#67 = DATE_TIME_ROLE ( 'creation_date' ) ;
#68 = AXIS2_PLACEMENT_3D ( 'NONE', #255, #240, #99 ) ;
#69 = APPROVAL_DATE_TIME ( #145, #2 ) ;
#70 = ORIENTED_EDGE ( 'NONE', *, *, #251, .F. ) ;
#71 = DIRECTION ( 'NONE',  ( -0.000000000000000000, -0.000000000000000000, -1.000000000000000000 ) ) ;
#72 = DIRECTION ( 'NONE',  ( -0.000000000000000000, -0.000000000000000000, -1.000000000000000000 ) ) ;
#73 = DIRECTION ( 'NONE',  ( 0.000000000000000000, 0.000000000000000000, 1.000000000000000000 ) ) ;
#74 = CARTESIAN_POINT ( 'NONE',  ( 0.000000000000000000, 0.000000000000000000, 0.000000000000000000 ) ) ;
#75 = MANIFOLD_SOLID_BREP ( 'Pøidat vysunutím3', #43 ) ;
#76 = DIRECTION ( 'NONE',  ( 0.000000000000000000, 0.000000000000000000, 1.000000000000000000 ) ) ;
#77 = ORIENTED_EDGE ( 'NONE', *, *, #251, .T. ) ;
#78 = ORIENTED_EDGE ( 'NONE', *, *, #162, .F. ) ;
#79 = PLANE ( 'NONE',  #238 ) ;
#80 = AXIS2_PLACEMENT_3D ( 'NONE', #89, #253, #176 ) ;
#81 = LOCAL_TIME ( 12, 25, 8.000000000000000000, #204 ) ;
#82 = CALENDAR_DATE ( 2023, 12, 2 ) ;
#83 = CYLINDRICAL_SURFACE ( 'NONE', #68, 5.100000000000001421 ) ;
#84 = PERSON_AND_ORGANIZATION ( #128, #231 ) ;
#85 = CC_DESIGN_DATE_AND_TIME_ASSIGNMENT ( #30, #67, ( #104 ) ) ;
#86 = PRODUCT_DEFINITION_FORMATION_WITH_SPECIFIED_SOURCE ( 'LIBOVOLNÝ', '', #143, .NOT_KNOWN. ) ;
#87 = EDGE_LOOP ( 'NONE', ( #78, #137 ) ) ;
#88 = EDGE_CURVE ( 'NONE', #63, #32, #92, .T. ) ;
#89 = CARTESIAN_POINT ( 'NONE',  ( 0.000000000000000000, 0.000000000000000000, 160.0000000000000000 ) ) ;
#90 = AXIS2_PLACEMENT_3D ( 'NONE', #154, #157, #130 ) ;
#91 = APPROVAL_PERSON_ORGANIZATION ( #149, #2, #228 ) ;
#92 = LINE ( 'NONE', #18, #242 ) ;
#93 = CARTESIAN_POINT ( 'NONE',  ( 0.000000000000000000, 0.000000000000000000, 160.0000000000000000 ) ) ;
#94 = CC_DESIGN_PERSON_AND_ORGANIZATION_ASSIGNMENT ( #66, #168, ( #86 ) ) ;
#95 = DESIGN_CONTEXT ( 'detailed design', #235, 'design' ) ;
#96 = CARTESIAN_POINT ( 'NONE',  ( 0.000000000000000000, 0.000000000000000000, 0.000000000000000000 ) ) ;
#97 = EDGE_CURVE ( 'NONE', #136, #116, #205, .T. ) ;
#98 = VERTEX_POINT ( 'NONE', #213 ) ;
#99 = DIRECTION ( 'NONE',  ( -1.000000000000000000, 0.000000000000000000, 0.000000000000000000 ) ) ;
#100 = DIRECTION ( 'NONE',  ( 1.000000000000000000, 0.000000000000000000, 0.000000000000000000 ) ) ;
#101 = CIRCLE ( 'NONE', #127, 8.000000000000000000 ) ;
#102 = ORIENTED_EDGE ( 'NONE', *, *, #202, .F. ) ;
#103 = DATE_AND_TIME ( #49, #109 ) ;
#104 = PRODUCT_DEFINITION ( 'NEZNÁMÝ', '', #86, #95 ) ;
#105 = SHAPE_DEFINITION_REPRESENTATION ( #126, #230 ) ;
#106 = ORIENTED_EDGE ( 'NONE', *, *, #13, .F. ) ;
#107 = AXIS2_PLACEMENT_3D ( 'NONE', #131, #110, #237 ) ;
#108 = PERSON_AND_ORGANIZATION ( #128, #231 ) ;
#109 = LOCAL_TIME ( 12, 25, 8.000000000000000000, #165 ) ;
#110 = DIRECTION ( 'NONE',  ( -0.000000000000000000, -0.000000000000000000, -1.000000000000000000 ) ) ;
#111 = DIRECTION ( 'NONE',  ( 0.000000000000000000, 0.000000000000000000, 1.000000000000000000 ) ) ;
#112 = AXIS2_PLACEMENT_3D ( 'NONE', #23, #195, #100 ) ;
#113 = CARTESIAN_POINT ( 'NONE',  ( 0.000000000000000000, 0.000000000000000000, 5.000000000000000000 ) ) ;
#114 = APPROVAL ( #247, 'NEURÈENÝ' ) ;
#115 = FACE_OUTER_BOUND ( 'NONE', #187, .T. ) ;
#116 = VERTEX_POINT ( 'NONE', #233 ) ;
#117 = CIRCLE ( 'NONE', #169, 8.000000000000000000 ) ;
#118 = VERTEX_POINT ( 'NONE', #39 ) ;
#119 = DIRECTION ( 'NONE',  ( -0.000000000000000000, -0.000000000000000000, -1.000000000000000000 ) ) ;
#120 = DATE_AND_TIME ( #82, #16 ) ;
#121 = EDGE_CURVE ( 'NONE', #124, #63, #3, .T. ) ;
#122 = ORIENTED_EDGE ( 'NONE', *, *, #36, .F. ) ;
#123 = CALENDAR_DATE ( 2023, 12, 2 ) ;
#124 = VERTEX_POINT ( 'NONE', #216 ) ;
#125 = PERSON_AND_ORGANIZATION ( #128, #231 ) ;
#126 = PRODUCT_DEFINITION_SHAPE ( 'NONE', 'NONE',  #104 ) ;
#127 = AXIS2_PLACEMENT_3D ( 'NONE', #189, #73, #215 ) ;
#128 = PERSON ( 'NEURÈENÝ', 'NEURÈENÝ', 'NEURÈENÝ', ('NEURÈENÝ'), ('NEURÈENÝ'), ('NEURÈENÝ') ) ;
#129 = CC_DESIGN_APPROVAL ( #2, ( #86 ) ) ;
#130 = DIRECTION ( 'NONE',  ( 1.000000000000000000, 0.000000000000000000, 0.000000000000000000 ) ) ;
#131 = CARTESIAN_POINT ( 'NONE',  ( 0.000000000000000000, 0.000000000000000000, 5.000000000000000000 ) ) ;
#132 = DIRECTION ( 'NONE',  ( -1.000000000000000000, 0.000000000000000000, 0.000000000000000000 ) ) ;
#133 = DIRECTION ( 'NONE',  ( 1.000000000000000000, 0.000000000000000000, 0.000000000000000000 ) ) ;
#134 = ADVANCED_FACE ( 'NONE', ( #20 ), #239, .T. ) ;
#135 = EDGE_LOOP ( 'NONE', ( #70, #14, #160, #58 ) ) ;
#136 = VERTEX_POINT ( 'NONE', #232 ) ;
#137 = ORIENTED_EDGE ( 'NONE', *, *, #97, .F. ) ;
#138 = AXIS2_PLACEMENT_3D ( 'NONE', #153, #53, #191 ) ;
#139 = PERSON_AND_ORGANIZATION_ROLE ( 'design_owner' ) ;
#140 = CC_DESIGN_APPROVAL ( #114, ( #163 ) ) ;
#141 = ORIENTED_EDGE ( 'NONE', *, *, #172, .F. ) ;
#142 = DATE_AND_TIME ( #123, #64 ) ;
#143 = PRODUCT ( '2995', '2995', '', ( #25 ) ) ;
#144 = DIRECTION ( 'NONE',  ( 0.000000000000000000, 0.000000000000000000, 1.000000000000000000 ) ) ;
#145 = DATE_AND_TIME ( #65, #147 ) ;
#146 = ADVANCED_FACE ( 'NONE', ( #190 ), #1, .T. ) ;
#147 = LOCAL_TIME ( 12, 25, 8.000000000000000000, #250 ) ;
#148 = APPROVAL_STATUS ( 'not_yet_approved' ) ;
#149 = PERSON_AND_ORGANIZATION ( #128, #231 ) ;
#150 = CARTESIAN_POINT ( 'NONE',  ( -5.100000000000001421, 0.000000000000000000, 160.0000000000000000 ) ) ;
#151 = EDGE_CURVE ( 'NONE', #32, #118, #101, .T. ) ;
#152 = AXIS2_PLACEMENT_3D ( 'NONE', #93, #71, #132 ) ;
#153 = CARTESIAN_POINT ( 'NONE',  ( 0.000000000000000000, 0.000000000000000000, 160.0000000000000000 ) ) ;
#154 = CARTESIAN_POINT ( 'NONE',  ( 0.000000000000000000, 0.000000000000000000, 5.000000000000000000 ) ) ;
#155 = CARTESIAN_POINT ( 'NONE',  ( 8.000000000000000000, 9.797174393178825657E-16, 5.000000000000000000 ) ) ;
#156 = DIRECTION ( 'NONE',  ( 1.000000000000000000, 0.000000000000000000, 0.000000000000000000 ) ) ;
#157 = DIRECTION ( 'NONE',  ( 0.000000000000000000, 0.000000000000000000, 1.000000000000000000 ) ) ;
#158 = EDGE_CURVE ( 'NONE', #98, #206, #28, .T. ) ;
#159 = ORIENTED_EDGE ( 'NONE', *, *, #88, .F. ) ;
#160 = ORIENTED_EDGE ( 'NONE', *, *, #151, .T. ) ;
#161 = APPROVAL_PERSON_ORGANIZATION ( #48, #197, #249 ) ;
#162 = EDGE_CURVE ( 'NONE', #116, #136, #174, .T. ) ;
#163 = SECURITY_CLASSIFICATION ( '', '', #211 ) ;
#164 = EDGE_LOOP ( 'NONE', ( #102, #173, #45, #8 ) ) ;
#165 = COORDINATED_UNIVERSAL_TIME_OFFSET ( 1, 0, .AHEAD. ) ;
#166 = LINE ( 'NONE', #150, #185 ) ;
#167 = APPROVAL_ROLE ( '' ) ;
#168 = PERSON_AND_ORGANIZATION_ROLE ( 'creator' ) ;
#169 = AXIS2_PLACEMENT_3D ( 'NONE', #96, #179, #4 ) ;
#170 = ORIENTED_EDGE ( 'NONE', *, *, #158, .T. ) ;
#171 = APPROVAL_STATUS ( 'not_yet_approved' ) ;
#172 = EDGE_CURVE ( 'NONE', #118, #32, #117, .T. ) ;
#173 = ORIENTED_EDGE ( 'NONE', *, *, #158, .F. ) ;
#174 = CIRCLE ( 'NONE', #11, 5.100000000000001421 ) ;
#175 = CIRCLE ( 'NONE', #80, 5.100000000000001421 ) ;
#176 = DIRECTION ( 'NONE',  ( 1.000000000000000000, 0.000000000000000000, 0.000000000000000000 ) ) ;
#177 = EDGE_CURVE ( 'NONE', #124, #118, #56, .T. ) ;
#178 = FACE_OUTER_BOUND ( 'NONE', #222, .T. ) ;
#179 = DIRECTION ( 'NONE',  ( 0.000000000000000000, 0.000000000000000000, 1.000000000000000000 ) ) ;
#180 =( NAMED_UNIT ( * ) SI_UNIT ( $, .STERADIAN. ) SOLID_ANGLE_UNIT ( ) );
#181 = FACE_OUTER_BOUND ( 'NONE', #135, .T. ) ;
#182 = CC_DESIGN_PERSON_AND_ORGANIZATION_ASSIGNMENT ( #84, #207, ( #104 ) ) ;
#183 =( NAMED_UNIT ( * ) PLANE_ANGLE_UNIT ( ) SI_UNIT ( $, .RADIAN. ) );
#184 = CC_DESIGN_PERSON_AND_ORGANIZATION_ASSIGNMENT ( #62, #139, ( #143 ) ) ;
#185 = VECTOR ( 'NONE', #229, 1000.000000000000000 ) ;
#186 = APPROVAL_PERSON_ORGANIZATION ( #208, #114, #167 ) ;
#187 = EDGE_LOOP ( 'NONE', ( #243, #77 ) ) ;
#188 = COORDINATED_UNIVERSAL_TIME_OFFSET ( 1, 0, .AHEAD. ) ;
#189 = CARTESIAN_POINT ( 'NONE',  ( 0.000000000000000000, 0.000000000000000000, 0.000000000000000000 ) ) ;
#190 = FACE_OUTER_BOUND ( 'NONE', #164, .T. ) ;
#191 = DIRECTION ( 'NONE',  ( 1.000000000000000000, 0.000000000000000000, -0.000000000000000000 ) ) ;
#192 = ADVANCED_FACE ( 'NONE', ( #10, #115 ), #79, .T. ) ;
#193 = AXIS2_PLACEMENT_3D ( 'NONE', #52, #111, #156 ) ;
#194 = CC_DESIGN_SECURITY_CLASSIFICATION ( #163, ( #86 ) ) ;
#195 = DIRECTION ( 'NONE',  ( 0.000000000000000000, 0.000000000000000000, 1.000000000000000000 ) ) ;
#196 = EDGE_LOOP ( 'NONE', ( #122, #57, #252, #106 ) ) ;
#197 = APPROVAL ( #171, 'NEURÈENÝ' ) ;
#198 = APPLICATION_PROTOCOL_DEFINITION ( 'international standard', 'config_control_design', 1994, #6 ) ;
#199 = VECTOR ( 'NONE', #40, 1000.000000000000000 ) ;
#200 = ORIENTED_EDGE ( 'NONE', *, *, #177, .T. ) ;
#201 = CYLINDRICAL_SURFACE ( 'NONE', #5, 8.000000000000000000 ) ;
#202 = EDGE_CURVE ( 'NONE', #206, #136, #34, .T. ) ;
#203 = EDGE_LOOP ( 'NONE', ( #170, #26 ) ) ;
#204 = COORDINATED_UNIVERSAL_TIME_OFFSET ( 1, 0, .AHEAD. ) ;
#205 = CIRCLE ( 'NONE', #90, 5.100000000000001421 ) ;
#206 = VERTEX_POINT ( 'NONE', #29 ) ;
#207 = PERSON_AND_ORGANIZATION_ROLE ( 'creator' ) ;
#208 = PERSON_AND_ORGANIZATION ( #128, #231 ) ;
#209 = CC_DESIGN_PERSON_AND_ORGANIZATION_ASSIGNMENT ( #125, #245, ( #86 ) ) ;
#210 = CARTESIAN_POINT ( 'NONE',  ( 0.000000000000000000, 0.000000000000000000, 5.000000000000000000 ) ) ;
#211 = SECURITY_CLASSIFICATION_LEVEL ( 'unclassified' ) ;
#212 = DIRECTION ( 'NONE',  ( 0.000000000000000000, 0.000000000000000000, 1.000000000000000000 ) ) ;
#213 = CARTESIAN_POINT ( 'NONE',  ( -5.100000000000001421, 0.000000000000000000, 160.0000000000000000 ) ) ;
#214 = UNCERTAINTY_MEASURE_WITH_UNIT (LENGTH_MEASURE( 1.000000000000000082E-05 ), #12, 'distance_accuracy_value', 'NONE');
#215 = DIRECTION ( 'NONE',  ( 1.000000000000000000, 0.000000000000000000, 0.000000000000000000 ) ) ;
#216 = CARTESIAN_POINT ( 'NONE',  ( -8.000000000000000000, 0.000000000000000000, 5.000000000000000000 ) ) ;
#217 = DIRECTION ( 'NONE',  ( 0.000000000000000000, 0.000000000000000000, 1.000000000000000000 ) ) ;
#218 = CARTESIAN_POINT ( 'NONE',  ( 0.000000000000000000, 0.000000000000000000, 5.000000000000000000 ) ) ;
#219 = AXIS2_PLACEMENT_3D ( 'NONE', #74, #76, #254 ) ;
#220 = ORIENTED_EDGE ( 'NONE', *, *, #121, .F. ) ;
#221 = CC_DESIGN_APPROVAL ( #197, ( #104 ) ) ;
#222 = EDGE_LOOP ( 'NONE', ( #141, #27 ) ) ;
#223 = PERSON_AND_ORGANIZATION_ROLE ( 'classification_officer' ) ;
#224 = DIRECTION ( 'NONE',  ( 1.000000000000000000, 0.000000000000000000, -0.000000000000000000 ) ) ;
#225 = APPROVAL_DATE_TIME ( #103, #114 ) ;
#226 = ADVANCED_FACE ( 'NONE', ( #31 ), #83, .T. ) ;
#227 = DATE_TIME_ROLE ( 'classification_date' ) ;
#228 = APPROVAL_ROLE ( '' ) ;
#229 = DIRECTION ( 'NONE',  ( -0.000000000000000000, -0.000000000000000000, -1.000000000000000000 ) ) ;
#230 = ADVANCED_BREP_SHAPE_REPRESENTATION ( '2995', ( #75, #244 ), #42 ) ;
#231 = ORGANIZATION ( 'NEURÈENÝ', 'NEURÈENÝ', '' ) ;
#232 = CARTESIAN_POINT ( 'NONE',  ( 5.100000000000001421, 6.245698675651502811E-16, 5.000000000000000000 ) ) ;
#233 = CARTESIAN_POINT ( 'NONE',  ( -5.100000000000001421, 0.000000000000000000, 5.000000000000000000 ) ) ;
#234 = FACE_OUTER_BOUND ( 'NONE', #24, .T. ) ;
#235 = APPLICATION_CONTEXT ( 'configuration controlled 3d designs of mechanical parts and assemblies' ) ;
#236 = PRODUCT_RELATED_PRODUCT_CATEGORY ( 'detail', '', ( #143 ) ) ;
#237 = DIRECTION ( 'NONE',  ( -1.000000000000000000, 0.000000000000000000, 0.000000000000000000 ) ) ;
#238 = AXIS2_PLACEMENT_3D ( 'NONE', #210, #144, #224 ) ;
#239 = PLANE ( 'NONE',  #138 ) ;
#240 = DIRECTION ( 'NONE',  ( -0.000000000000000000, -0.000000000000000000, -1.000000000000000000 ) ) ;
#241 = CARTESIAN_POINT ( 'NONE',  ( 0.000000000000000000, 0.000000000000000000, 0.000000000000000000 ) ) ;
#242 = VECTOR ( 'NONE', #72, 1000.000000000000000 ) ;
#243 = ORIENTED_EDGE ( 'NONE', *, *, #121, .T. ) ;
#244 = AXIS2_PLACEMENT_3D ( 'NONE', #241, #217, #59 ) ;
#245 = PERSON_AND_ORGANIZATION_ROLE ( 'design_supplier' ) ;
#246 = CARTESIAN_POINT ( 'NONE',  ( 8.000000000000000000, 9.797174393178825657E-16, 0.000000000000000000 ) ) ;
#247 = APPROVAL_STATUS ( 'not_yet_approved' ) ;
#248 = ADVANCED_FACE ( 'NONE', ( #181 ), #201, .T. ) ;
#249 = APPROVAL_ROLE ( '' ) ;
#250 = COORDINATED_UNIVERSAL_TIME_OFFSET ( 1, 0, .AHEAD. ) ;
#251 = EDGE_CURVE ( 'NONE', #63, #124, #19, .T. ) ;
#252 = ORIENTED_EDGE ( 'NONE', *, *, #97, .T. ) ;
#253 = DIRECTION ( 'NONE',  ( 0.000000000000000000, 0.000000000000000000, 1.000000000000000000 ) ) ;
#254 = DIRECTION ( 'NONE',  ( 1.000000000000000000, 0.000000000000000000, -0.000000000000000000 ) ) ;
#255 = CARTESIAN_POINT ( 'NONE',  ( 0.000000000000000000, 0.000000000000000000, 160.0000000000000000 ) ) ;
ENDSEC;
END-ISO-10303-21;
