ISO-10303-21;
HEADER;
FILE_DESCRIPTION (( 'STEP AP203' ),
    '1' );
FILE_NAME ('b9a7.STEP',
    '2023-02-12T12:51:02',
    ( '' ),
    ( '' ),
    'SwSTEP 2.0',
    'SolidWorks 2019',
    '' );
FILE_SCHEMA (( 'CONFIG_CONTROL_DESIGN' ));
ENDSEC;

DATA;
#1 = FACE_OUTER_BOUND ( 'NONE', #245, .T. ) ;
#2 = CARTESIAN_POINT ( 'NONE',  ( 1.100000000000000089, 1.347111479062088503E-16, 125.0000000000000000 ) ) ;
#3 = CARTESIAN_POINT ( 'NONE',  ( 0.000000000000000000, 0.000000000000000000, 125.0000000000000000 ) ) ;
#4 = FACE_OUTER_BOUND ( 'NONE', #223, .T. ) ;
#5 = AXIS2_PLACEMENT_3D ( 'NONE', #221, #58, #66 ) ;
#6 =( NAMED_UNIT ( * ) SI_UNIT ( $, .STERADIAN. ) SOLID_ANGLE_UNIT ( ) );
#7 = PLANE ( 'NONE',  #163 ) ;
#8 = CIRCLE ( 'NONE', #106, 1.100000000000000089 ) ;
#9 = DIRECTION ( 'NONE',  ( 1.000000000000000000, 0.000000000000000000, 0.000000000000000000 ) ) ;
#10 = ORIENTED_EDGE ( 'NONE', *, *, #154, .F. ) ;
#11 = MANIFOLD_SOLID_BREP ( 'Pøidat vysunutím3', #102 ) ;
#12 = CC_DESIGN_PERSON_AND_ORGANIZATION_ASSIGNMENT ( #130, #108, ( #59 ) ) ;
#13 = ORIENTED_EDGE ( 'NONE', *, *, #200, .T. ) ;
#14 = DATE_TIME_ROLE ( 'classification_date' ) ;
#15 = APPROVAL_ROLE ( '' ) ;
#16 = CC_DESIGN_APPROVAL ( #230, ( #122 ) ) ;
#17 = CIRCLE ( 'NONE', #140, 1.100000000000000089 ) ;
#18 = EDGE_CURVE ( 'NONE', #105, #75, #253, .T. ) ;
#19 = CARTESIAN_POINT ( 'NONE',  ( -1.100000000000000089, 0.000000000000000000, 2.000000000000000000 ) ) ;
#20 = DIRECTION ( 'NONE',  ( 1.000000000000000000, 0.000000000000000000, 0.000000000000000000 ) ) ;
#21 = CIRCLE ( 'NONE', #246, 2.000000000000000000 ) ;
#22 = DIRECTION ( 'NONE',  ( 1.000000000000000000, 0.000000000000000000, 0.000000000000000000 ) ) ;
#23 = UNCERTAINTY_MEASURE_WITH_UNIT (LENGTH_MEASURE( 1.000000000000000082E-05 ), #46, 'distance_accuracy_value', 'NONE');
#24 = DIRECTION ( 'NONE',  ( 0.000000000000000000, 0.000000000000000000, 1.000000000000000000 ) ) ;
#25 = CARTESIAN_POINT ( 'NONE',  ( 0.000000000000000000, 0.000000000000000000, 0.000000000000000000 ) ) ;
#26 = LOCAL_TIME ( 13, 51, 2.000000000000000000, #43 ) ;
#27 = EDGE_CURVE ( 'NONE', #104, #91, #17, .T. ) ;
#28 = PERSON_AND_ORGANIZATION_ROLE ( 'design_owner' ) ;
#29 = ORIENTED_EDGE ( 'NONE', *, *, #73, .T. ) ;
#30 = FACE_OUTER_BOUND ( 'NONE', #70, .T. ) ;
#31 = ORIENTED_EDGE ( 'NONE', *, *, #220, .T. ) ;
#32 = APPROVAL_STATUS ( 'not_yet_approved' ) ;
#33 = CYLINDRICAL_SURFACE ( 'NONE', #147, 2.000000000000000000 ) ;
#34 = SECURITY_CLASSIFICATION_LEVEL ( 'unclassified' ) ;
#35 = CC_DESIGN_APPROVAL ( #249, ( #59 ) ) ;
#36 = APPROVAL_DATE_TIME ( #228, #230 ) ;
#37 = CARTESIAN_POINT ( 'NONE',  ( 0.000000000000000000, 0.000000000000000000, 0.000000000000000000 ) ) ;
#38 = CC_DESIGN_DATE_AND_TIME_ASSIGNMENT ( #212, #55, ( #122 ) ) ;
#39 = DIRECTION ( 'NONE',  ( 0.000000000000000000, 0.000000000000000000, 1.000000000000000000 ) ) ;
#40 = APPLICATION_CONTEXT ( 'configuration controlled 3d designs of mechanical parts and assemblies' ) ;
#41 = CYLINDRICAL_SURFACE ( 'NONE', #132, 2.000000000000000000 ) ;
#42 = CIRCLE ( 'NONE', #64, 1.100000000000000089 ) ;
#43 = COORDINATED_UNIVERSAL_TIME_OFFSET ( 1, 0, .AHEAD. ) ;
#44 = CARTESIAN_POINT ( 'NONE',  ( 2.000000000000000000, 2.449293598294706414E-16, 2.000000000000000000 ) ) ;
#45 = FACE_BOUND ( 'NONE', #231, .T. ) ;
#46 =( LENGTH_UNIT ( ) NAMED_UNIT ( * ) SI_UNIT ( .MILLI., .METRE. ) );
#47 = EDGE_CURVE ( 'NONE', #75, #105, #51, .T. ) ;
#48 = APPROVAL_PERSON_ORGANIZATION ( #125, #131, #15 ) ;
#49 = EDGE_LOOP ( 'NONE', ( #206, #13 ) ) ;
#50 = CC_DESIGN_PERSON_AND_ORGANIZATION_ASSIGNMENT ( #78, #168, ( #160 ) ) ;
#51 = CIRCLE ( 'NONE', #205, 2.000000000000000000 ) ;
#52 = EDGE_LOOP ( 'NONE', ( #162, #54 ) ) ;
#53 = DIRECTION ( 'NONE',  ( 1.000000000000000000, 0.000000000000000000, 0.000000000000000000 ) ) ;
#54 = ORIENTED_EDGE ( 'NONE', *, *, #18, .T. ) ;
#55 = DATE_TIME_ROLE ( 'creation_date' ) ;
#56 = ORIENTED_EDGE ( 'NONE', *, *, #73, .F. ) ;
#57 = LOCAL_TIME ( 13, 51, 2.000000000000000000, #209 ) ;
#58 = DIRECTION ( 'NONE',  ( -0.000000000000000000, -0.000000000000000000, -1.000000000000000000 ) ) ;
#59 = SECURITY_CLASSIFICATION ( '', '', #34 ) ;
#60 = CARTESIAN_POINT ( 'NONE',  ( 0.000000000000000000, 0.000000000000000000, 0.000000000000000000 ) ) ;
#61 = FACE_OUTER_BOUND ( 'NONE', #150, .T. ) ;
#62 = APPROVAL_STATUS ( 'not_yet_approved' ) ;
#63 = CARTESIAN_POINT ( 'NONE',  ( 1.100000000000000089, 1.347111479062088503E-16, 2.000000000000000000 ) ) ;
#64 = AXIS2_PLACEMENT_3D ( 'NONE', #197, #95, #83 ) ;
#65 = MECHANICAL_CONTEXT ( 'NONE', #156, 'mechanical' ) ;
#66 = DIRECTION ( 'NONE',  ( -1.000000000000000000, 0.000000000000000000, 0.000000000000000000 ) ) ;
#67 = ADVANCED_FACE ( 'NONE', ( #30 ), #33, .T. ) ;
#68 = EDGE_CURVE ( 'NONE', #75, #127, #233, .T. ) ;
#69 = CARTESIAN_POINT ( 'NONE',  ( 0.000000000000000000, 0.000000000000000000, 0.000000000000000000 ) ) ;
#70 = EDGE_LOOP ( 'NONE', ( #88, #31, #143, #210 ) ) ;
#71 = CC_DESIGN_PERSON_AND_ORGANIZATION_ASSIGNMENT ( #115, #28, ( #252 ) ) ;
#72 = ORIENTED_EDGE ( 'NONE', *, *, #226, .F. ) ;
#73 = EDGE_CURVE ( 'NONE', #91, #104, #8, .T. ) ;
#74 = CARTESIAN_POINT ( 'NONE',  ( 0.000000000000000000, 0.000000000000000000, 2.000000000000000000 ) ) ;
#75 = VERTEX_POINT ( 'NONE', #134 ) ;
#76 = CALENDAR_DATE ( 2023, 12, 2 ) ;
#77 = COORDINATED_UNIVERSAL_TIME_OFFSET ( 1, 0, .AHEAD. ) ;
#78 = PERSON_AND_ORGANIZATION ( #239, #96 ) ;
#79 = ADVANCED_BREP_SHAPE_REPRESENTATION ( 'b9a7', ( #11, #139 ), #123 ) ;
#80 = APPLICATION_PROTOCOL_DEFINITION ( 'international standard', 'config_control_design', 1994, #40 ) ;
#81 = DIRECTION ( 'NONE',  ( -0.000000000000000000, -0.000000000000000000, -1.000000000000000000 ) ) ;
#82 = AXIS2_PLACEMENT_3D ( 'NONE', #25, #141, #138 ) ;
#83 = DIRECTION ( 'NONE',  ( 1.000000000000000000, 0.000000000000000000, 0.000000000000000000 ) ) ;
#84 = CARTESIAN_POINT ( 'NONE',  ( 0.000000000000000000, 0.000000000000000000, 125.0000000000000000 ) ) ;
#85 = DIRECTION ( 'NONE',  ( 0.000000000000000000, 0.000000000000000000, 1.000000000000000000 ) ) ;
#86 = DIRECTION ( 'NONE',  ( -1.000000000000000000, 0.000000000000000000, 0.000000000000000000 ) ) ;
#87 = ORIENTED_EDGE ( 'NONE', *, *, #255, .T. ) ;
#88 = ORIENTED_EDGE ( 'NONE', *, *, #18, .F. ) ;
#89 = CIRCLE ( 'NONE', #144, 1.100000000000000089 ) ;
#90 = ORIENTED_EDGE ( 'NONE', *, *, #161, .F. ) ;
#91 = VERTEX_POINT ( 'NONE', #63 ) ;
#92 = COORDINATED_UNIVERSAL_TIME_OFFSET ( 1, 0, .AHEAD. ) ;
#93 = APPROVAL_STATUS ( 'not_yet_approved' ) ;
#94 = LINE ( 'NONE', #44, #191 ) ;
#95 = DIRECTION ( 'NONE',  ( 0.000000000000000000, 0.000000000000000000, 1.000000000000000000 ) ) ;
#96 = ORGANIZATION ( 'NEURÈENÝ', 'NEURÈENÝ', '' ) ;
#97 = CYLINDRICAL_SURFACE ( 'NONE', #165, 1.100000000000000089 ) ;
#98 = CARTESIAN_POINT ( 'NONE',  ( 2.000000000000000000, 2.449293598294706414E-16, 0.000000000000000000 ) ) ;
#99 = LINE ( 'NONE', #203, #240 ) ;
#100 = CARTESIAN_POINT ( 'NONE',  ( -1.100000000000000089, 0.000000000000000000, 125.0000000000000000 ) ) ;
#101 = CC_DESIGN_PERSON_AND_ORGANIZATION_ASSIGNMENT ( #235, #153, ( #160 ) ) ;
#102 = CLOSED_SHELL ( 'NONE', ( #181, #67, #244, #103, #133, #208, #171 ) ) ;
#103 = ADVANCED_FACE ( 'NONE', ( #45, #238 ), #117, .T. ) ;
#104 = VERTEX_POINT ( 'NONE', #19 ) ;
#105 = VERTEX_POINT ( 'NONE', #173 ) ;
#106 = AXIS2_PLACEMENT_3D ( 'NONE', #116, #39, #195 ) ;
#107 = DATE_AND_TIME ( #152, #170 ) ;
#108 = PERSON_AND_ORGANIZATION_ROLE ( 'classification_officer' ) ;
#109 = CC_DESIGN_APPROVAL ( #131, ( #160 ) ) ;
#110 = COORDINATED_UNIVERSAL_TIME_OFFSET ( 1, 0, .AHEAD. ) ;
#111 = DIRECTION ( 'NONE',  ( -0.000000000000000000, -0.000000000000000000, -1.000000000000000000 ) ) ;
#112 = EDGE_CURVE ( 'NONE', #201, #127, #182, .T. ) ;
#113 = PLANE ( 'NONE',  #82 ) ;
#114 = CARTESIAN_POINT ( 'NONE',  ( -2.000000000000000000, 0.000000000000000000, 0.000000000000000000 ) ) ;
#115 = PERSON_AND_ORGANIZATION ( #239, #96 ) ;
#116 = CARTESIAN_POINT ( 'NONE',  ( 0.000000000000000000, 0.000000000000000000, 2.000000000000000000 ) ) ;
#117 = PLANE ( 'NONE',  #135 ) ;
#118 = LOCAL_TIME ( 13, 51, 2.000000000000000000, #110 ) ;
#119 = APPLICATION_PROTOCOL_DEFINITION ( 'international standard', 'config_control_design', 1994, #156 ) ;
#120 = ORIENTED_EDGE ( 'NONE', *, *, #112, .F. ) ;
#121 = VERTEX_POINT ( 'NONE', #2 ) ;
#122 = PRODUCT_DEFINITION ( 'NEZNÁMÝ', '', #160, #176 ) ;
#123 =( GEOMETRIC_REPRESENTATION_CONTEXT ( 3 ) GLOBAL_UNCERTAINTY_ASSIGNED_CONTEXT ( ( #23 ) ) GLOBAL_UNIT_ASSIGNED_CONTEXT ( ( #46, #137, #6 ) ) REPRESENTATION_CONTEXT ( 'NONE', 'WORKASPACE' ) );
#124 = ORIENTED_EDGE ( 'NONE', *, *, #220, .F. ) ;
#125 = PERSON_AND_ORGANIZATION ( #239, #96 ) ;
#126 = EDGE_LOOP ( 'NONE', ( #185, #72, #149, #242 ) ) ;
#127 = VERTEX_POINT ( 'NONE', #114 ) ;
#128 = VECTOR ( 'NONE', #174, 1000.000000000000000 ) ;
#129 = APPROVAL_DATE_TIME ( #232, #249 ) ;
#130 = PERSON_AND_ORGANIZATION ( #239, #96 ) ;
#131 = APPROVAL ( #32, 'NEURÈENÝ' ) ;
#132 = AXIS2_PLACEMENT_3D ( 'NONE', #179, #142, #198 ) ;
#133 = ADVANCED_FACE ( 'NONE', ( #1 ), #113, .F. ) ;
#134 = CARTESIAN_POINT ( 'NONE',  ( -2.000000000000000000, 0.000000000000000000, 2.000000000000000000 ) ) ;
#135 = AXIS2_PLACEMENT_3D ( 'NONE', #175, #24, #216 ) ;
#136 = DIRECTION ( 'NONE',  ( 0.000000000000000000, 0.000000000000000000, 1.000000000000000000 ) ) ;
#137 =( NAMED_UNIT ( * ) PLANE_ANGLE_UNIT ( ) SI_UNIT ( $, .RADIAN. ) );
#138 = DIRECTION ( 'NONE',  ( 1.000000000000000000, 0.000000000000000000, -0.000000000000000000 ) ) ;
#139 = AXIS2_PLACEMENT_3D ( 'NONE', #69, #183, #9 ) ;
#140 = AXIS2_PLACEMENT_3D ( 'NONE', #74, #211, #53 ) ;
#141 = DIRECTION ( 'NONE',  ( 0.000000000000000000, 0.000000000000000000, 1.000000000000000000 ) ) ;
#142 = DIRECTION ( 'NONE',  ( -0.000000000000000000, -0.000000000000000000, -1.000000000000000000 ) ) ;
#143 = ORIENTED_EDGE ( 'NONE', *, *, #112, .T. ) ;
#144 = AXIS2_PLACEMENT_3D ( 'NONE', #84, #158, #20 ) ;
#145 = APPROVAL_PERSON_ORGANIZATION ( #192, #249, #172 ) ;
#146 = CARTESIAN_POINT ( 'NONE',  ( 0.000000000000000000, 0.000000000000000000, 2.000000000000000000 ) ) ;
#147 = AXIS2_PLACEMENT_3D ( 'NONE', #151, #190, #169 ) ;
#148 = PERSON_AND_ORGANIZATION ( #239, #96 ) ;
#149 = ORIENTED_EDGE ( 'NONE', *, *, #154, .T. ) ;
#150 = EDGE_LOOP ( 'NONE', ( #124, #188, #250, #227 ) ) ;
#151 = CARTESIAN_POINT ( 'NONE',  ( 0.000000000000000000, 0.000000000000000000, 2.000000000000000000 ) ) ;
#152 = CALENDAR_DATE ( 2023, 12, 2 ) ;
#153 = PERSON_AND_ORGANIZATION_ROLE ( 'design_supplier' ) ;
#154 = EDGE_CURVE ( 'NONE', #164, #104, #199, .T. ) ;
#155 = CARTESIAN_POINT ( 'NONE',  ( -1.100000000000000089, 0.000000000000000000, 125.0000000000000000 ) ) ;
#156 = APPLICATION_CONTEXT ( 'configuration controlled 3d designs of mechanical parts and assemblies' ) ;
#157 = PERSON_AND_ORGANIZATION ( #239, #96 ) ;
#158 = DIRECTION ( 'NONE',  ( 0.000000000000000000, 0.000000000000000000, 1.000000000000000000 ) ) ;
#159 = DIRECTION ( 'NONE',  ( 0.000000000000000000, 0.000000000000000000, 1.000000000000000000 ) ) ;
#160 = PRODUCT_DEFINITION_FORMATION_WITH_SPECIFIED_SOURCE ( 'LIBOVOLNÝ', '', #252, .NOT_KNOWN. ) ;
#161 = EDGE_CURVE ( 'NONE', #127, #201, #21, .T. ) ;
#162 = ORIENTED_EDGE ( 'NONE', *, *, #47, .T. ) ;
#163 = AXIS2_PLACEMENT_3D ( 'NONE', #3, #136, #194 ) ;
#164 = VERTEX_POINT ( 'NONE', #155 ) ;
#165 = AXIS2_PLACEMENT_3D ( 'NONE', #241, #219, #86 ) ;
#166 = DIRECTION ( 'NONE',  ( 0.000000000000000000, 0.000000000000000000, 1.000000000000000000 ) ) ;
#167 = ORIENTED_EDGE ( 'NONE', *, *, #27, .F. ) ;
#168 = PERSON_AND_ORGANIZATION_ROLE ( 'creator' ) ;
#169 = DIRECTION ( 'NONE',  ( -1.000000000000000000, 0.000000000000000000, 0.000000000000000000 ) ) ;
#170 = LOCAL_TIME ( 13, 51, 2.000000000000000000, #92 ) ;
#171 = ADVANCED_FACE ( 'NONE', ( #178 ), #7, .T. ) ;
#172 = APPROVAL_ROLE ( '' ) ;
#173 = CARTESIAN_POINT ( 'NONE',  ( 2.000000000000000000, 2.449293598294706414E-16, 2.000000000000000000 ) ) ;
#174 = DIRECTION ( 'NONE',  ( -0.000000000000000000, -0.000000000000000000, -1.000000000000000000 ) ) ;
#175 = CARTESIAN_POINT ( 'NONE',  ( 0.000000000000000000, 0.000000000000000000, 2.000000000000000000 ) ) ;
#176 = DESIGN_CONTEXT ( 'detailed design', #40, 'design' ) ;
#177 = DIRECTION ( 'NONE',  ( -0.000000000000000000, -0.000000000000000000, -1.000000000000000000 ) ) ;
#178 = FACE_OUTER_BOUND ( 'NONE', #49, .T. ) ;
#179 = CARTESIAN_POINT ( 'NONE',  ( 0.000000000000000000, 0.000000000000000000, 2.000000000000000000 ) ) ;
#180 = DIRECTION ( 'NONE',  ( 1.000000000000000000, 0.000000000000000000, 0.000000000000000000 ) ) ;
#181 = ADVANCED_FACE ( 'NONE', ( #4 ), #97, .T. ) ;
#182 = CIRCLE ( 'NONE', #187, 2.000000000000000000 ) ;
#183 = DIRECTION ( 'NONE',  ( 0.000000000000000000, 0.000000000000000000, 1.000000000000000000 ) ) ;
#184 = CC_DESIGN_DATE_AND_TIME_ASSIGNMENT ( #189, #14, ( #59 ) ) ;
#185 = ORIENTED_EDGE ( 'NONE', *, *, #255, .F. ) ;
#186 = PERSON_AND_ORGANIZATION_ROLE ( 'creator' ) ;
#187 = AXIS2_PLACEMENT_3D ( 'NONE', #37, #159, #22 ) ;
#188 = ORIENTED_EDGE ( 'NONE', *, *, #47, .F. ) ;
#189 = DATE_AND_TIME ( #234, #118 ) ;
#190 = DIRECTION ( 'NONE',  ( -0.000000000000000000, -0.000000000000000000, -1.000000000000000000 ) ) ;
#191 = VECTOR ( 'NONE', #111, 1000.000000000000000 ) ;
#192 = PERSON_AND_ORGANIZATION ( #239, #96 ) ;
#193 = CYLINDRICAL_SURFACE ( 'NONE', #5, 1.100000000000000089 ) ;
#194 = DIRECTION ( 'NONE',  ( 1.000000000000000000, 0.000000000000000000, -0.000000000000000000 ) ) ;
#195 = DIRECTION ( 'NONE',  ( 1.000000000000000000, 0.000000000000000000, 0.000000000000000000 ) ) ;
#196 = CALENDAR_DATE ( 2023, 12, 2 ) ;
#197 = CARTESIAN_POINT ( 'NONE',  ( 0.000000000000000000, 0.000000000000000000, 125.0000000000000000 ) ) ;
#198 = DIRECTION ( 'NONE',  ( -1.000000000000000000, 0.000000000000000000, 0.000000000000000000 ) ) ;
#199 = LINE ( 'NONE', #100, #222 ) ;
#200 = EDGE_CURVE ( 'NONE', #121, #164, #89, .T. ) ;
#201 = VERTEX_POINT ( 'NONE', #98 ) ;
#202 = PRODUCT_RELATED_PRODUCT_CATEGORY ( 'detail', '', ( #252 ) ) ;
#203 = CARTESIAN_POINT ( 'NONE',  ( 1.100000000000000089, 1.347111479062088503E-16, 125.0000000000000000 ) ) ;
#204 = ORIENTED_EDGE ( 'NONE', *, *, #200, .F. ) ;
#205 = AXIS2_PLACEMENT_3D ( 'NONE', #251, #214, #207 ) ;
#206 = ORIENTED_EDGE ( 'NONE', *, *, #226, .T. ) ;
#207 = DIRECTION ( 'NONE',  ( 1.000000000000000000, 0.000000000000000000, 0.000000000000000000 ) ) ;
#208 = ADVANCED_FACE ( 'NONE', ( #236 ), #193, .T. ) ;
#209 = COORDINATED_UNIVERSAL_TIME_OFFSET ( 1, 0, .AHEAD. ) ;
#210 = ORIENTED_EDGE ( 'NONE', *, *, #68, .F. ) ;
#211 = DIRECTION ( 'NONE',  ( 0.000000000000000000, 0.000000000000000000, 1.000000000000000000 ) ) ;
#212 = DATE_AND_TIME ( #248, #237 ) ;
#213 = SHAPE_DEFINITION_REPRESENTATION ( #229, #79 ) ;
#214 = DIRECTION ( 'NONE',  ( 0.000000000000000000, 0.000000000000000000, 1.000000000000000000 ) ) ;
#215 = CC_DESIGN_SECURITY_CLASSIFICATION ( #59, ( #160 ) ) ;
#216 = DIRECTION ( 'NONE',  ( 1.000000000000000000, 0.000000000000000000, -0.000000000000000000 ) ) ;
#217 = CARTESIAN_POINT ( 'NONE',  ( -2.000000000000000000, 0.000000000000000000, 2.000000000000000000 ) ) ;
#218 = APPROVAL_ROLE ( '' ) ;
#219 = DIRECTION ( 'NONE',  ( -0.000000000000000000, -0.000000000000000000, -1.000000000000000000 ) ) ;
#220 = EDGE_CURVE ( 'NONE', #105, #201, #94, .T. ) ;
#221 = CARTESIAN_POINT ( 'NONE',  ( 0.000000000000000000, 0.000000000000000000, 125.0000000000000000 ) ) ;
#222 = VECTOR ( 'NONE', #81, 1000.000000000000000 ) ;
#223 = EDGE_LOOP ( 'NONE', ( #204, #87, #29, #10 ) ) ;
#224 = CC_DESIGN_PERSON_AND_ORGANIZATION_ASSIGNMENT ( #148, #186, ( #122 ) ) ;
#225 = APPROVAL_PERSON_ORGANIZATION ( #157, #230, #218 ) ;
#226 = EDGE_CURVE ( 'NONE', #164, #121, #42, .T. ) ;
#227 = ORIENTED_EDGE ( 'NONE', *, *, #161, .T. ) ;
#228 = DATE_AND_TIME ( #196, #26 ) ;
#229 = PRODUCT_DEFINITION_SHAPE ( 'NONE', 'NONE',  #122 ) ;
#230 = APPROVAL ( #62, 'NEURÈENÝ' ) ;
#231 = EDGE_LOOP ( 'NONE', ( #167, #56 ) ) ;
#232 = DATE_AND_TIME ( #76, #57 ) ;
#233 = LINE ( 'NONE', #217, #128 ) ;
#234 = CALENDAR_DATE ( 2023, 12, 2 ) ;
#235 = PERSON_AND_ORGANIZATION ( #239, #96 ) ;
#236 = FACE_OUTER_BOUND ( 'NONE', #126, .T. ) ;
#237 = LOCAL_TIME ( 13, 51, 2.000000000000000000, #77 ) ;
#238 = FACE_OUTER_BOUND ( 'NONE', #52, .T. ) ;
#239 = PERSON ( 'NEURÈENÝ', 'NEURÈENÝ', 'NEURÈENÝ', ('NEURÈENÝ'), ('NEURÈENÝ'), ('NEURÈENÝ') ) ;
#240 = VECTOR ( 'NONE', #177, 1000.000000000000000 ) ;
#241 = CARTESIAN_POINT ( 'NONE',  ( 0.000000000000000000, 0.000000000000000000, 125.0000000000000000 ) ) ;
#242 = ORIENTED_EDGE ( 'NONE', *, *, #27, .T. ) ;
#243 = AXIS2_PLACEMENT_3D ( 'NONE', #146, #166, #247 ) ;
#244 = ADVANCED_FACE ( 'NONE', ( #61 ), #41, .T. ) ;
#245 = EDGE_LOOP ( 'NONE', ( #90, #120 ) ) ;
#246 = AXIS2_PLACEMENT_3D ( 'NONE', #60, #85, #180 ) ;
#247 = DIRECTION ( 'NONE',  ( 1.000000000000000000, 0.000000000000000000, 0.000000000000000000 ) ) ;
#248 = CALENDAR_DATE ( 2023, 12, 2 ) ;
#249 = APPROVAL ( #93, 'NEURÈENÝ' ) ;
#250 = ORIENTED_EDGE ( 'NONE', *, *, #68, .T. ) ;
#251 = CARTESIAN_POINT ( 'NONE',  ( 0.000000000000000000, 0.000000000000000000, 2.000000000000000000 ) ) ;
#252 = PRODUCT ( 'b9a7', 'b9a7', '', ( #65 ) ) ;
#253 = CIRCLE ( 'NONE', #243, 2.000000000000000000 ) ;
#254 = APPROVAL_DATE_TIME ( #107, #131 ) ;
#255 = EDGE_CURVE ( 'NONE', #121, #91, #99, .T. ) ;
ENDSEC;
END-ISO-10303-21;
