ISO-10303-21;
HEADER;
FILE_DESCRIPTION (( 'STEP AP203' ),
    '1' );
FILE_NAME ('b511.STEP',
    '2023-02-12T11:06:17',
    ( '' ),
    ( '' ),
    'SwSTEP 2.0',
    'SolidWorks 2019',
    '' );
FILE_SCHEMA (( 'CONFIG_CONTROL_DESIGN' ));
ENDSEC;

DATA;
#1 = SECURITY_CLASSIFICATION ( '', '', #49 ) ;
#2 = CYLINDRICAL_SURFACE ( 'NONE', #158, 6.000000000000000888 ) ;
#3 = PRODUCT ( 'b511', 'b511', '', ( #184 ) ) ;
#4 = APPROVAL_STATUS ( 'not_yet_approved' ) ;
#5 = DIRECTION ( 'NONE',  ( 1.000000000000000000, 0.000000000000000000, 0.000000000000000000 ) ) ;
#6 = ADVANCED_FACE ( 'NONE', ( #116 ), #2, .T. ) ;
#7 = APPROVAL ( #22, 'NEURÈENÝ' ) ;
#8 = VERTEX_POINT ( 'NONE', #54 ) ;
#9 = FACE_OUTER_BOUND ( 'NONE', #110, .T. ) ;
#10 = ADVANCED_BREP_SHAPE_REPRESENTATION ( 'b511', ( #156, #147 ), #34 ) ;
#11 = CARTESIAN_POINT ( 'NONE',  ( 0.000000000000000000, 0.000000000000000000, 7.000000000000000000 ) ) ;
#12 = CIRCLE ( 'NONE', #240, 9.000000000000000000 ) ;
#13 = CYLINDRICAL_SURFACE ( 'NONE', #174, 6.000000000000000888 ) ;
#14 = CARTESIAN_POINT ( 'NONE',  ( 0.000000000000000000, 0.000000000000000000, 160.0000000000000000 ) ) ;
#15 = CARTESIAN_POINT ( 'NONE',  ( -6.000000000000000888, 0.000000000000000000, 7.000000000000000000 ) ) ;
#16 = APPROVAL_PERSON_ORGANIZATION ( #186, #129, #242 ) ;
#17 = CYLINDRICAL_SURFACE ( 'NONE', #249, 9.000000000000000000 ) ;
#18 = CARTESIAN_POINT ( 'NONE',  ( -6.000000000000000888, 0.000000000000000000, 160.0000000000000000 ) ) ;
#19 = CIRCLE ( 'NONE', #179, 9.000000000000000000 ) ;
#20 = ADVANCED_FACE ( 'NONE', ( #233 ), #114, .F. ) ;
#21 = PERSON_AND_ORGANIZATION_ROLE ( 'design_owner' ) ;
#22 = APPROVAL_STATUS ( 'not_yet_approved' ) ;
#23 = CALENDAR_DATE ( 2023, 12, 2 ) ;
#24 = VERTEX_POINT ( 'NONE', #194 ) ;
#25 = ORIENTED_EDGE ( 'NONE', *, *, #30, .F. ) ;
#26 = DATE_AND_TIME ( #247, #229 ) ;
#27 = CC_DESIGN_DATE_AND_TIME_ASSIGNMENT ( #142, #220, ( #98 ) ) ;
#28 = EDGE_LOOP ( 'NONE', ( #67, #207 ) ) ;
#29 = CYLINDRICAL_SURFACE ( 'NONE', #225, 9.000000000000000000 ) ;
#30 = EDGE_CURVE ( 'NONE', #128, #24, #12, .T. ) ;
#31 = CARTESIAN_POINT ( 'NONE',  ( 0.000000000000000000, 0.000000000000000000, 0.000000000000000000 ) ) ;
#32 = CIRCLE ( 'NONE', #224, 9.000000000000000000 ) ;
#33 = VECTOR ( 'NONE', #60, 1000.000000000000000 ) ;
#34 =( GEOMETRIC_REPRESENTATION_CONTEXT ( 3 ) GLOBAL_UNCERTAINTY_ASSIGNED_CONTEXT ( ( #64 ) ) GLOBAL_UNIT_ASSIGNED_CONTEXT ( ( #239, #105, #126 ) ) REPRESENTATION_CONTEXT ( 'NONE', 'WORKASPACE' ) );
#35 = CARTESIAN_POINT ( 'NONE',  ( 0.000000000000000000, 0.000000000000000000, 160.0000000000000000 ) ) ;
#36 = DIRECTION ( 'NONE',  ( 0.000000000000000000, 0.000000000000000000, 1.000000000000000000 ) ) ;
#37 = LINE ( 'NONE', #120, #81 ) ;
#38 = PERSON_AND_ORGANIZATION ( #199, #185 ) ;
#39 = FACE_OUTER_BOUND ( 'NONE', #44, .T. ) ;
#40 = EDGE_CURVE ( 'NONE', #50, #131, #121, .T. ) ;
#41 = DIRECTION ( 'NONE',  ( 0.000000000000000000, 0.000000000000000000, 1.000000000000000000 ) ) ;
#42 = AXIS2_PLACEMENT_3D ( 'NONE', #11, #235, #198 ) ;
#43 = PERSON_AND_ORGANIZATION ( #199, #185 ) ;
#44 = EDGE_LOOP ( 'NONE', ( #148, #214, #171, #69 ) ) ;
#45 = AXIS2_PLACEMENT_3D ( 'NONE', #155, #95, #237 ) ;
#46 = COORDINATED_UNIVERSAL_TIME_OFFSET ( 1, 0, .AHEAD. ) ;
#47 = LOCAL_TIME ( 12, 6, 17.00000000000000000, #84 ) ;
#48 = CC_DESIGN_SECURITY_CLASSIFICATION ( #1, ( #56 ) ) ;
#49 = SECURITY_CLASSIFICATION_LEVEL ( 'unclassified' ) ;
#50 = VERTEX_POINT ( 'NONE', #15 ) ;
#51 = ORIENTED_EDGE ( 'NONE', *, *, #30, .T. ) ;
#52 = ADVANCED_FACE ( 'NONE', ( #178 ), #79, .T. ) ;
#53 = VERTEX_POINT ( 'NONE', #160 ) ;
#54 = CARTESIAN_POINT ( 'NONE',  ( 9.000000000000000000, 1.102182119232617714E-15, 7.000000000000000000 ) ) ;
#55 = FACE_OUTER_BOUND ( 'NONE', #94, .T. ) ;
#56 = PRODUCT_DEFINITION_FORMATION_WITH_SPECIFIED_SOURCE ( 'LIBOVOLNÝ', '', #3, .NOT_KNOWN. ) ;
#57 = CARTESIAN_POINT ( 'NONE',  ( -9.000000000000000000, 0.000000000000000000, 7.000000000000000000 ) ) ;
#58 = CARTESIAN_POINT ( 'NONE',  ( 0.000000000000000000, 0.000000000000000000, 0.000000000000000000 ) ) ;
#59 = DESIGN_CONTEXT ( 'detailed design', #75, 'design' ) ;
#60 = DIRECTION ( 'NONE',  ( -0.000000000000000000, -0.000000000000000000, -1.000000000000000000 ) ) ;
#61 = AXIS2_PLACEMENT_3D ( 'NONE', #87, #41, #146 ) ;
#62 = EDGE_CURVE ( 'NONE', #131, #50, #76, .T. ) ;
#63 = DIRECTION ( 'NONE',  ( 0.000000000000000000, 0.000000000000000000, 1.000000000000000000 ) ) ;
#64 = UNCERTAINTY_MEASURE_WITH_UNIT (LENGTH_MEASURE( 1.000000000000000082E-05 ), #239, 'distance_accuracy_value', 'NONE');
#65 = CC_DESIGN_APPROVAL ( #7, ( #1 ) ) ;
#66 = CALENDAR_DATE ( 2023, 12, 2 ) ;
#67 = ORIENTED_EDGE ( 'NONE', *, *, #93, .T. ) ;
#68 = PERSON_AND_ORGANIZATION ( #199, #185 ) ;
#69 = ORIENTED_EDGE ( 'NONE', *, *, #71, .F. ) ;
#70 = PERSON_AND_ORGANIZATION_ROLE ( 'design_supplier' ) ;
#71 = EDGE_CURVE ( 'NONE', #133, #128, #37, .T. ) ;
#72 = APPROVAL_PERSON_ORGANIZATION ( #38, #201, #190 ) ;
#73 = DATE_TIME_ROLE ( 'classification_date' ) ;
#74 = ORIENTED_EDGE ( 'NONE', *, *, #40, .F. ) ;
#75 = APPLICATION_CONTEXT ( 'configuration controlled 3d designs of mechanical parts and assemblies' ) ;
#76 = CIRCLE ( 'NONE', #193, 6.000000000000000888 ) ;
#77 = DIRECTION ( 'NONE',  ( 0.000000000000000000, 0.000000000000000000, 1.000000000000000000 ) ) ;
#78 = DIRECTION ( 'NONE',  ( 0.000000000000000000, 0.000000000000000000, 1.000000000000000000 ) ) ;
#79 = PLANE ( 'NONE',  #125 ) ;
#80 = DIRECTION ( 'NONE',  ( -1.000000000000000000, 0.000000000000000000, 0.000000000000000000 ) ) ;
#81 = VECTOR ( 'NONE', #195, 1000.000000000000000 ) ;
#82 = ADVANCED_FACE ( 'NONE', ( #252, #139 ), #254, .T. ) ;
#83 = DIRECTION ( 'NONE',  ( 1.000000000000000000, 0.000000000000000000, -0.000000000000000000 ) ) ;
#84 = COORDINATED_UNIVERSAL_TIME_OFFSET ( 1, 0, .AHEAD. ) ;
#85 = ADVANCED_FACE ( 'NONE', ( #9 ), #13, .T. ) ;
#86 = LINE ( 'NONE', #123, #106 ) ;
#87 = CARTESIAN_POINT ( 'NONE',  ( 0.000000000000000000, 0.000000000000000000, 160.0000000000000000 ) ) ;
#88 = APPROVAL_STATUS ( 'not_yet_approved' ) ;
#89 = APPLICATION_CONTEXT ( 'configuration controlled 3d designs of mechanical parts and assemblies' ) ;
#90 = APPLICATION_PROTOCOL_DEFINITION ( 'international standard', 'config_control_design', 1994, #89 ) ;
#91 = ORIENTED_EDGE ( 'NONE', *, *, #191, .T. ) ;
#92 = APPROVAL_DATE_TIME ( #230, #201 ) ;
#93 = EDGE_CURVE ( 'NONE', #248, #53, #162, .T. ) ;
#94 = EDGE_LOOP ( 'NONE', ( #244, #167, #169, #51 ) ) ;
#95 = DIRECTION ( 'NONE',  ( 0.000000000000000000, 0.000000000000000000, 1.000000000000000000 ) ) ;
#96 = CARTESIAN_POINT ( 'NONE',  ( 0.000000000000000000, 0.000000000000000000, 7.000000000000000000 ) ) ;
#97 = DIRECTION ( 'NONE',  ( -0.000000000000000000, -0.000000000000000000, -1.000000000000000000 ) ) ;
#98 = PRODUCT_DEFINITION ( 'NEZNÁMÝ', '', #56, #59 ) ;
#99 = DIRECTION ( 'NONE',  ( -0.000000000000000000, -0.000000000000000000, -1.000000000000000000 ) ) ;
#100 = DIRECTION ( 'NONE',  ( 1.000000000000000000, 0.000000000000000000, -0.000000000000000000 ) ) ;
#101 = APPROVAL_PERSON_ORGANIZATION ( #127, #7, #189 ) ;
#102 = COORDINATED_UNIVERSAL_TIME_OFFSET ( 1, 0, .AHEAD. ) ;
#103 = EDGE_CURVE ( 'NONE', #53, #131, #213, .T. ) ;
#104 = CALENDAR_DATE ( 2023, 12, 2 ) ;
#105 =( NAMED_UNIT ( * ) PLANE_ANGLE_UNIT ( ) SI_UNIT ( $, .RADIAN. ) );
#106 = VECTOR ( 'NONE', #108, 1000.000000000000000 ) ;
#107 = AXIS2_PLACEMENT_3D ( 'NONE', #223, #164, #222 ) ;
#108 = DIRECTION ( 'NONE',  ( -0.000000000000000000, -0.000000000000000000, -1.000000000000000000 ) ) ;
#109 = EDGE_LOOP ( 'NONE', ( #208, #150, #91, #138 ) ) ;
#110 = EDGE_LOOP ( 'NONE', ( #180, #211, #227, #246 ) ) ;
#111 = APPROVAL_DATE_TIME ( #151, #7 ) ;
#112 = CC_DESIGN_APPROVAL ( #129, ( #98 ) ) ;
#113 = EDGE_LOOP ( 'NONE', ( #25, #132 ) ) ;
#114 = PLANE ( 'NONE',  #200 ) ;
#115 = VECTOR ( 'NONE', #97, 1000.000000000000000 ) ;
#116 = FACE_OUTER_BOUND ( 'NONE', #109, .T. ) ;
#117 = CC_DESIGN_PERSON_AND_ORGANIZATION_ASSIGNMENT ( #245, #206, ( #56 ) ) ;
#118 = DIRECTION ( 'NONE',  ( 0.000000000000000000, 0.000000000000000000, 1.000000000000000000 ) ) ;
#119 = DIRECTION ( 'NONE',  ( 1.000000000000000000, 0.000000000000000000, 0.000000000000000000 ) ) ;
#120 = CARTESIAN_POINT ( 'NONE',  ( -9.000000000000000000, 0.000000000000000000, 7.000000000000000000 ) ) ;
#121 = CIRCLE ( 'NONE', #42, 6.000000000000000888 ) ;
#122 = CARTESIAN_POINT ( 'NONE',  ( 0.000000000000000000, 0.000000000000000000, 7.000000000000000000 ) ) ;
#123 = CARTESIAN_POINT ( 'NONE',  ( -6.000000000000000888, 0.000000000000000000, 160.0000000000000000 ) ) ;
#124 = PERSON_AND_ORGANIZATION ( #199, #185 ) ;
#125 = AXIS2_PLACEMENT_3D ( 'NONE', #238, #196, #100 ) ;
#126 =( NAMED_UNIT ( * ) SI_UNIT ( $, .STERADIAN. ) SOLID_ANGLE_UNIT ( ) );
#127 = PERSON_AND_ORGANIZATION ( #199, #185 ) ;
#128 = VERTEX_POINT ( 'NONE', #251 ) ;
#129 = APPROVAL ( #88, 'NEURÈENÝ' ) ;
#130 = COORDINATED_UNIVERSAL_TIME_OFFSET ( 1, 0, .AHEAD. ) ;
#131 = VERTEX_POINT ( 'NONE', #177 ) ;
#132 = ORIENTED_EDGE ( 'NONE', *, *, #136, .F. ) ;
#133 = VERTEX_POINT ( 'NONE', #57 ) ;
#134 = DIRECTION ( 'NONE',  ( -1.000000000000000000, 0.000000000000000000, 0.000000000000000000 ) ) ;
#135 = CARTESIAN_POINT ( 'NONE',  ( 0.000000000000000000, 0.000000000000000000, 0.000000000000000000 ) ) ;
#136 = EDGE_CURVE ( 'NONE', #24, #128, #32, .T. ) ;
#137 = CC_DESIGN_APPROVAL ( #201, ( #56 ) ) ;
#138 = ORIENTED_EDGE ( 'NONE', *, *, #40, .T. ) ;
#139 = FACE_OUTER_BOUND ( 'NONE', #153, .T. ) ;
#140 = ADVANCED_FACE ( 'NONE', ( #55 ), #29, .T. ) ;
#141 = CARTESIAN_POINT ( 'NONE',  ( 0.000000000000000000, 0.000000000000000000, 7.000000000000000000 ) ) ;
#142 = DATE_AND_TIME ( #104, #47 ) ;
#143 = LINE ( 'NONE', #241, #33 ) ;
#144 = DIRECTION ( 'NONE',  ( -1.000000000000000000, 0.000000000000000000, 0.000000000000000000 ) ) ;
#145 = CC_DESIGN_PERSON_AND_ORGANIZATION_ASSIGNMENT ( #172, #168, ( #1 ) ) ;
#146 = DIRECTION ( 'NONE',  ( 1.000000000000000000, 0.000000000000000000, 0.000000000000000000 ) ) ;
#147 = AXIS2_PLACEMENT_3D ( 'NONE', #205, #166, #5 ) ;
#148 = ORIENTED_EDGE ( 'NONE', *, *, #221, .F. ) ;
#149 = CALENDAR_DATE ( 2023, 12, 2 ) ;
#150 = ORIENTED_EDGE ( 'NONE', *, *, #93, .F. ) ;
#151 = DATE_AND_TIME ( #23, #215 ) ;
#152 = CIRCLE ( 'NONE', #61, 6.000000000000000888 ) ;
#153 = EDGE_LOOP ( 'NONE', ( #217, #234 ) ) ;
#154 = DIRECTION ( 'NONE',  ( 1.000000000000000000, 0.000000000000000000, 0.000000000000000000 ) ) ;
#155 = CARTESIAN_POINT ( 'NONE',  ( 0.000000000000000000, 0.000000000000000000, 160.0000000000000000 ) ) ;
#156 = MANIFOLD_SOLID_BREP ( 'Pøidat vysunutím3', #210 ) ;
#157 = CARTESIAN_POINT ( 'NONE',  ( 0.000000000000000000, 0.000000000000000000, 7.000000000000000000 ) ) ;
#158 = AXIS2_PLACEMENT_3D ( 'NONE', #35, #255, #134 ) ;
#159 = DIRECTION ( 'NONE',  ( 0.000000000000000000, 0.000000000000000000, 1.000000000000000000 ) ) ;
#160 = CARTESIAN_POINT ( 'NONE',  ( 6.000000000000000888, 7.347880794884120722E-16, 160.0000000000000000 ) ) ;
#161 = APPROVAL_DATE_TIME ( #226, #129 ) ;
#162 = CIRCLE ( 'NONE', #45, 6.000000000000000888 ) ;
#163 = PRODUCT_DEFINITION_SHAPE ( 'NONE', 'NONE',  #98 ) ;
#164 = DIRECTION ( 'NONE',  ( 0.000000000000000000, 0.000000000000000000, 1.000000000000000000 ) ) ;
#165 = CC_DESIGN_PERSON_AND_ORGANIZATION_ASSIGNMENT ( #43, #181, ( #98 ) ) ;
#166 = DIRECTION ( 'NONE',  ( 0.000000000000000000, 0.000000000000000000, 1.000000000000000000 ) ) ;
#167 = ORIENTED_EDGE ( 'NONE', *, *, #175, .F. ) ;
#168 = PERSON_AND_ORGANIZATION_ROLE ( 'classification_officer' ) ;
#169 = ORIENTED_EDGE ( 'NONE', *, *, #71, .T. ) ;
#170 = CIRCLE ( 'NONE', #107, 9.000000000000000000 ) ;
#171 = ORIENTED_EDGE ( 'NONE', *, *, #136, .T. ) ;
#172 = PERSON_AND_ORGANIZATION ( #199, #185 ) ;
#173 = CARTESIAN_POINT ( 'NONE',  ( 6.000000000000000888, 7.347880794884120722E-16, 160.0000000000000000 ) ) ;
#174 = AXIS2_PLACEMENT_3D ( 'NONE', #14, #99, #80 ) ;
#175 = EDGE_CURVE ( 'NONE', #133, #8, #19, .T. ) ;
#176 = DIRECTION ( 'NONE',  ( -0.000000000000000000, -0.000000000000000000, -1.000000000000000000 ) ) ;
#177 = CARTESIAN_POINT ( 'NONE',  ( 6.000000000000000888, 7.347880794884120722E-16, 7.000000000000000000 ) ) ;
#178 = FACE_OUTER_BOUND ( 'NONE', #28, .T. ) ;
#179 = AXIS2_PLACEMENT_3D ( 'NONE', #182, #63, #202 ) ;
#180 = ORIENTED_EDGE ( 'NONE', *, *, #197, .F. ) ;
#181 = PERSON_AND_ORGANIZATION_ROLE ( 'creator' ) ;
#182 = CARTESIAN_POINT ( 'NONE',  ( 0.000000000000000000, 0.000000000000000000, 7.000000000000000000 ) ) ;
#183 = EDGE_CURVE ( 'NONE', #8, #24, #143, .T. ) ;
#184 = MECHANICAL_CONTEXT ( 'NONE', #89, 'mechanical' ) ;
#185 = ORGANIZATION ( 'NEURÈENÝ', 'NEURÈENÝ', '' ) ;
#186 = PERSON_AND_ORGANIZATION ( #199, #185 ) ;
#187 = DIRECTION ( 'NONE',  ( -1.000000000000000000, 0.000000000000000000, 0.000000000000000000 ) ) ;
#188 = CC_DESIGN_DATE_AND_TIME_ASSIGNMENT ( #26, #73, ( #1 ) ) ;
#189 = APPROVAL_ROLE ( '' ) ;
#190 = APPROVAL_ROLE ( '' ) ;
#191 = EDGE_CURVE ( 'NONE', #248, #50, #86, .T. ) ;
#192 = ORIENTED_EDGE ( 'NONE', *, *, #62, .F. ) ;
#193 = AXIS2_PLACEMENT_3D ( 'NONE', #141, #159, #218 ) ;
#194 = CARTESIAN_POINT ( 'NONE',  ( 9.000000000000000000, 1.102182119232617714E-15, 0.000000000000000000 ) ) ;
#195 = DIRECTION ( 'NONE',  ( -0.000000000000000000, -0.000000000000000000, -1.000000000000000000 ) ) ;
#196 = DIRECTION ( 'NONE',  ( 0.000000000000000000, 0.000000000000000000, 1.000000000000000000 ) ) ;
#197 = EDGE_CURVE ( 'NONE', #53, #248, #152, .T. ) ;
#198 = DIRECTION ( 'NONE',  ( 1.000000000000000000, 0.000000000000000000, 0.000000000000000000 ) ) ;
#199 = PERSON ( 'NEURÈENÝ', 'NEURÈENÝ', 'NEURÈENÝ', ('NEURÈENÝ'), ('NEURÈENÝ'), ('NEURÈENÝ') ) ;
#200 = AXIS2_PLACEMENT_3D ( 'NONE', #58, #36, #83 ) ;
#201 = APPROVAL ( #4, 'NEURÈENÝ' ) ;
#202 = DIRECTION ( 'NONE',  ( 1.000000000000000000, 0.000000000000000000, 0.000000000000000000 ) ) ;
#203 = DIRECTION ( 'NONE',  ( -0.000000000000000000, -0.000000000000000000, -1.000000000000000000 ) ) ;
#204 = LOCAL_TIME ( 12, 6, 17.00000000000000000, #130 ) ;
#205 = CARTESIAN_POINT ( 'NONE',  ( 0.000000000000000000, 0.000000000000000000, 0.000000000000000000 ) ) ;
#206 = PERSON_AND_ORGANIZATION_ROLE ( 'creator' ) ;
#207 = ORIENTED_EDGE ( 'NONE', *, *, #197, .T. ) ;
#208 = ORIENTED_EDGE ( 'NONE', *, *, #103, .F. ) ;
#209 = CC_DESIGN_PERSON_AND_ORGANIZATION_ASSIGNMENT ( #124, #21, ( #3 ) ) ;
#210 = CLOSED_SHELL ( 'NONE', ( #85, #253, #140, #82, #20, #6, #52 ) ) ;
#211 = ORIENTED_EDGE ( 'NONE', *, *, #103, .T. ) ;
#212 = DIRECTION ( 'NONE',  ( 1.000000000000000000, 0.000000000000000000, -0.000000000000000000 ) ) ;
#213 = LINE ( 'NONE', #173, #115 ) ;
#214 = ORIENTED_EDGE ( 'NONE', *, *, #183, .T. ) ;
#215 = LOCAL_TIME ( 12, 6, 17.00000000000000000, #231 ) ;
#216 = PRODUCT_RELATED_PRODUCT_CATEGORY ( 'detail', '', ( #3 ) ) ;
#217 = ORIENTED_EDGE ( 'NONE', *, *, #175, .T. ) ;
#218 = DIRECTION ( 'NONE',  ( 1.000000000000000000, 0.000000000000000000, 0.000000000000000000 ) ) ;
#219 = AXIS2_PLACEMENT_3D ( 'NONE', #157, #78, #212 ) ;
#220 = DATE_TIME_ROLE ( 'creation_date' ) ;
#221 = EDGE_CURVE ( 'NONE', #8, #133, #170, .T. ) ;
#222 = DIRECTION ( 'NONE',  ( 1.000000000000000000, 0.000000000000000000, 0.000000000000000000 ) ) ;
#223 = CARTESIAN_POINT ( 'NONE',  ( 0.000000000000000000, 0.000000000000000000, 7.000000000000000000 ) ) ;
#224 = AXIS2_PLACEMENT_3D ( 'NONE', #31, #77, #154 ) ;
#225 = AXIS2_PLACEMENT_3D ( 'NONE', #96, #176, #187 ) ;
#226 = DATE_AND_TIME ( #66, #250 ) ;
#227 = ORIENTED_EDGE ( 'NONE', *, *, #62, .T. ) ;
#228 = SHAPE_DEFINITION_REPRESENTATION ( #163, #10 ) ;
#229 = LOCAL_TIME ( 12, 6, 17.00000000000000000, #46 ) ;
#230 = DATE_AND_TIME ( #149, #204 ) ;
#231 = COORDINATED_UNIVERSAL_TIME_OFFSET ( 1, 0, .AHEAD. ) ;
#232 = EDGE_LOOP ( 'NONE', ( #74, #192 ) ) ;
#233 = FACE_OUTER_BOUND ( 'NONE', #113, .T. ) ;
#234 = ORIENTED_EDGE ( 'NONE', *, *, #221, .T. ) ;
#235 = DIRECTION ( 'NONE',  ( 0.000000000000000000, 0.000000000000000000, 1.000000000000000000 ) ) ;
#236 = CC_DESIGN_PERSON_AND_ORGANIZATION_ASSIGNMENT ( #68, #70, ( #56 ) ) ;
#237 = DIRECTION ( 'NONE',  ( 1.000000000000000000, 0.000000000000000000, 0.000000000000000000 ) ) ;
#238 = CARTESIAN_POINT ( 'NONE',  ( 0.000000000000000000, 0.000000000000000000, 160.0000000000000000 ) ) ;
#239 =( LENGTH_UNIT ( ) NAMED_UNIT ( * ) SI_UNIT ( .MILLI., .METRE. ) );
#240 = AXIS2_PLACEMENT_3D ( 'NONE', #135, #118, #119 ) ;
#241 = CARTESIAN_POINT ( 'NONE',  ( 9.000000000000000000, 1.102182119232617714E-15, 7.000000000000000000 ) ) ;
#242 = APPROVAL_ROLE ( '' ) ;
#243 = APPLICATION_PROTOCOL_DEFINITION ( 'international standard', 'config_control_design', 1994, #75 ) ;
#244 = ORIENTED_EDGE ( 'NONE', *, *, #183, .F. ) ;
#245 = PERSON_AND_ORGANIZATION ( #199, #185 ) ;
#246 = ORIENTED_EDGE ( 'NONE', *, *, #191, .F. ) ;
#247 = CALENDAR_DATE ( 2023, 12, 2 ) ;
#248 = VERTEX_POINT ( 'NONE', #18 ) ;
#249 = AXIS2_PLACEMENT_3D ( 'NONE', #122, #203, #144 ) ;
#250 = LOCAL_TIME ( 12, 6, 17.00000000000000000, #102 ) ;
#251 = CARTESIAN_POINT ( 'NONE',  ( -9.000000000000000000, 0.000000000000000000, 0.000000000000000000 ) ) ;
#252 = FACE_BOUND ( 'NONE', #232, .T. ) ;
#253 = ADVANCED_FACE ( 'NONE', ( #39 ), #17, .T. ) ;
#254 = PLANE ( 'NONE',  #219 ) ;
#255 = DIRECTION ( 'NONE',  ( -0.000000000000000000, -0.000000000000000000, -1.000000000000000000 ) ) ;
ENDSEC;
END-ISO-10303-21;
