ISO-10303-21;
HEADER;
FILE_DESCRIPTION (( 'STEP AP203' ),
    '1' );
FILE_NAME ('b655.STEP',
    '2023-02-12T11:55:16',
    ( '' ),
    ( '' ),
    'SwSTEP 2.0',
    'SolidWorks 2019',
    '' );
FILE_SCHEMA (( 'CONFIG_CONTROL_DESIGN' ));
ENDSEC;

DATA;
#1 = EDGE_LOOP ( 'NONE', ( #90, #240, #158, #127 ) ) ;
#2 = APPROVAL_STATUS ( 'not_yet_approved' ) ;
#3 = ORIENTED_EDGE ( 'NONE', *, *, #153, .F. ) ;
#4 = ADVANCED_FACE ( 'NONE', ( #67 ), #28, .T. ) ;
#5 = DIRECTION ( 'NONE',  ( -0.000000000000000000, -0.000000000000000000, -1.000000000000000000 ) ) ;
#6 = DIRECTION ( 'NONE',  ( 1.000000000000000000, 0.000000000000000000, 0.000000000000000000 ) ) ;
#7 = DIRECTION ( 'NONE',  ( 0.000000000000000000, 0.000000000000000000, 1.000000000000000000 ) ) ;
#8 = PERSON_AND_ORGANIZATION ( #186, #48 ) ;
#9 = VERTEX_POINT ( 'NONE', #128 ) ;
#10 = ADVANCED_FACE ( 'NONE', ( #223, #126 ), #106, .T. ) ;
#11 = AXIS2_PLACEMENT_3D ( 'NONE', #132, #173, #247 ) ;
#12 = DATE_TIME_ROLE ( 'classification_date' ) ;
#13 = LINE ( 'NONE', #191, #199 ) ;
#14 = AXIS2_PLACEMENT_3D ( 'NONE', #195, #152, #175 ) ;
#15 = CC_DESIGN_SECURITY_CLASSIFICATION ( #172, ( #103 ) ) ;
#16 = DIRECTION ( 'NONE',  ( 0.000000000000000000, 0.000000000000000000, 1.000000000000000000 ) ) ;
#17 = CARTESIAN_POINT ( 'NONE',  ( 0.000000000000000000, 0.000000000000000000, 125.0000000000000000 ) ) ;
#18 = PERSON_AND_ORGANIZATION_ROLE ( 'classification_officer' ) ;
#19 = CLOSED_SHELL ( 'NONE', ( #125, #50, #77, #10, #85, #4, #116 ) ) ;
#20 = CIRCLE ( 'NONE', #79, 4.000000000000000000 ) ;
#21 = CALENDAR_DATE ( 2023, 12, 2 ) ;
#22 = CARTESIAN_POINT ( 'NONE',  ( 7.000000000000000000, 8.572527594031473190E-16, 0.000000000000000000 ) ) ;
#23 = CC_DESIGN_PERSON_AND_ORGANIZATION_ASSIGNMENT ( #160, #70, ( #115 ) ) ;
#24 = ORIENTED_EDGE ( 'NONE', *, *, #246, .F. ) ;
#25 =( LENGTH_UNIT ( ) NAMED_UNIT ( * ) SI_UNIT ( .MILLI., .METRE. ) );
#26 = DIRECTION ( 'NONE',  ( 1.000000000000000000, 0.000000000000000000, 0.000000000000000000 ) ) ;
#27 = CALENDAR_DATE ( 2023, 12, 2 ) ;
#28 = CYLINDRICAL_SURFACE ( 'NONE', #141, 4.000000000000000000 ) ;
#29 = EDGE_LOOP ( 'NONE', ( #84, #181, #185, #51 ) ) ;
#30 = APPROVAL_DATE_TIME ( #224, #81 ) ;
#31 = ORIENTED_EDGE ( 'NONE', *, *, #233, .F. ) ;
#32 = LOCAL_TIME ( 12, 55, 16.00000000000000000, #200 ) ;
#33 = CARTESIAN_POINT ( 'NONE',  ( 0.000000000000000000, 0.000000000000000000, 5.000000000000000000 ) ) ;
#34 = FACE_OUTER_BOUND ( 'NONE', #239, .T. ) ;
#35 = PERSON_AND_ORGANIZATION ( #186, #48 ) ;
#36 = DIRECTION ( 'NONE',  ( 1.000000000000000000, 0.000000000000000000, -0.000000000000000000 ) ) ;
#37 = CC_DESIGN_APPROVAL ( #81, ( #137 ) ) ;
#38 = DIRECTION ( 'NONE',  ( 1.000000000000000000, 0.000000000000000000, 0.000000000000000000 ) ) ;
#39 = CC_DESIGN_DATE_AND_TIME_ASSIGNMENT ( #75, #12, ( #172 ) ) ;
#40 = CALENDAR_DATE ( 2023, 12, 2 ) ;
#41 = DIRECTION ( 'NONE',  ( -1.000000000000000000, 0.000000000000000000, 0.000000000000000000 ) ) ;
#42 = CARTESIAN_POINT ( 'NONE',  ( 0.000000000000000000, 0.000000000000000000, 5.000000000000000000 ) ) ;
#43 = DIRECTION ( 'NONE',  ( 1.000000000000000000, 0.000000000000000000, 0.000000000000000000 ) ) ;
#44 = CARTESIAN_POINT ( 'NONE',  ( -4.000000000000000000, 0.000000000000000000, 125.0000000000000000 ) ) ;
#45 = AXIS2_PLACEMENT_3D ( 'NONE', #42, #228, #41 ) ;
#46 = AXIS2_PLACEMENT_3D ( 'NONE', #230, #16, #80 ) ;
#47 = PERSON_AND_ORGANIZATION ( #186, #48 ) ;
#48 = ORGANIZATION ( 'NEURÈENÝ', 'NEURÈENÝ', '' ) ;
#49 = CALENDAR_DATE ( 2023, 12, 2 ) ;
#50 = ADVANCED_FACE ( 'NONE', ( #161 ), #73, .T. ) ;
#51 = ORIENTED_EDGE ( 'NONE', *, *, #227, .F. ) ;
#52 = CC_DESIGN_PERSON_AND_ORGANIZATION_ASSIGNMENT ( #188, #18, ( #172 ) ) ;
#53 = COORDINATED_UNIVERSAL_TIME_OFFSET ( 1, 0, .AHEAD. ) ;
#54 = EDGE_LOOP ( 'NONE', ( #203, #143 ) ) ;
#55 = MANIFOLD_SOLID_BREP ( 'Pøidat vysunutím3', #19 ) ;
#56 = DIRECTION ( 'NONE',  ( 1.000000000000000000, 0.000000000000000000, 0.000000000000000000 ) ) ;
#57 = DIRECTION ( 'NONE',  ( -1.000000000000000000, 0.000000000000000000, 0.000000000000000000 ) ) ;
#58 = CC_DESIGN_APPROVAL ( #64, ( #172 ) ) ;
#59 = CARTESIAN_POINT ( 'NONE',  ( -7.000000000000000000, 0.000000000000000000, 5.000000000000000000 ) ) ;
#60 = DIRECTION ( 'NONE',  ( -0.000000000000000000, -0.000000000000000000, -1.000000000000000000 ) ) ;
#61 = EDGE_CURVE ( 'NONE', #156, #138, #111, .T. ) ;
#62 = AXIS2_PLACEMENT_3D ( 'NONE', #189, #82, #36 ) ;
#63 = CARTESIAN_POINT ( 'NONE',  ( -4.000000000000000000, 0.000000000000000000, 125.0000000000000000 ) ) ;
#64 = APPROVAL ( #167, 'NEURÈENÝ' ) ;
#65 =( NAMED_UNIT ( * ) SI_UNIT ( $, .STERADIAN. ) SOLID_ANGLE_UNIT ( ) );
#66 = COORDINATED_UNIVERSAL_TIME_OFFSET ( 1, 0, .AHEAD. ) ;
#67 = FACE_OUTER_BOUND ( 'NONE', #93, .T. ) ;
#68 = CIRCLE ( 'NONE', #46, 4.000000000000000000 ) ;
#69 = EDGE_LOOP ( 'NONE', ( #24, #3 ) ) ;
#70 = PERSON_AND_ORGANIZATION_ROLE ( 'design_owner' ) ;
#71 = ORIENTED_EDGE ( 'NONE', *, *, #227, .T. ) ;
#72 = APPROVAL_ROLE ( '' ) ;
#73 = CYLINDRICAL_SURFACE ( 'NONE', #45, 7.000000000000000000 ) ;
#74 = EDGE_LOOP ( 'NONE', ( #182, #107, #140, #237 ) ) ;
#75 = DATE_AND_TIME ( #21, #87 ) ;
#76 = DIRECTION ( 'NONE',  ( 0.000000000000000000, 0.000000000000000000, 1.000000000000000000 ) ) ;
#77 = ADVANCED_FACE ( 'NONE', ( #144 ), #117, .T. ) ;
#78 = DIRECTION ( 'NONE',  ( -0.000000000000000000, -0.000000000000000000, -1.000000000000000000 ) ) ;
#79 = AXIS2_PLACEMENT_3D ( 'NONE', #196, #134, #26 ) ;
#80 = DIRECTION ( 'NONE',  ( 1.000000000000000000, 0.000000000000000000, 0.000000000000000000 ) ) ;
#81 = APPROVAL ( #187, 'NEURÈENÝ' ) ;
#82 = DIRECTION ( 'NONE',  ( 0.000000000000000000, 0.000000000000000000, 1.000000000000000000 ) ) ;
#83 = AXIS2_PLACEMENT_3D ( 'NONE', #243, #76, #43 ) ;
#84 = ORIENTED_EDGE ( 'NONE', *, *, #217, .F. ) ;
#85 = ADVANCED_FACE ( 'NONE', ( #34 ), #244, .F. ) ;
#86 = AXIS2_PLACEMENT_3D ( 'NONE', #130, #99, #56 ) ;
#87 = LOCAL_TIME ( 12, 55, 16.00000000000000000, #242 ) ;
#88 = VERTEX_POINT ( 'NONE', #63 ) ;
#89 = APPROVAL_ROLE ( '' ) ;
#90 = ORIENTED_EDGE ( 'NONE', *, *, #150, .F. ) ;
#91 = UNCERTAINTY_MEASURE_WITH_UNIT (LENGTH_MEASURE( 1.000000000000000082E-05 ), #25, 'distance_accuracy_value', 'NONE');
#92 = DIRECTION ( 'NONE',  ( -1.000000000000000000, 0.000000000000000000, 0.000000000000000000 ) ) ;
#93 = EDGE_LOOP ( 'NONE', ( #94, #31, #71, #225 ) ) ;
#94 = ORIENTED_EDGE ( 'NONE', *, *, #109, .F. ) ;
#95 = CARTESIAN_POINT ( 'NONE',  ( 0.000000000000000000, 0.000000000000000000, 5.000000000000000000 ) ) ;
#96 = COORDINATED_UNIVERSAL_TIME_OFFSET ( 1, 0, .AHEAD. ) ;
#97 = DIRECTION ( 'NONE',  ( 0.000000000000000000, 0.000000000000000000, 1.000000000000000000 ) ) ;
#98 = EDGE_CURVE ( 'NONE', #9, #156, #170, .T. ) ;
#99 = DIRECTION ( 'NONE',  ( 0.000000000000000000, 0.000000000000000000, 1.000000000000000000 ) ) ;
#100 = VECTOR ( 'NONE', #216, 1000.000000000000000 ) ;
#101 = APPLICATION_CONTEXT ( 'configuration controlled 3d designs of mechanical parts and assemblies' ) ;
#102 = CARTESIAN_POINT ( 'NONE',  ( 0.000000000000000000, 0.000000000000000000, 5.000000000000000000 ) ) ;
#103 = PRODUCT_DEFINITION_FORMATION_WITH_SPECIFIED_SOURCE ( 'LIBOVOLNÝ', '', #115, .NOT_KNOWN. ) ;
#104 = CIRCLE ( 'NONE', #201, 7.000000000000000000 ) ;
#105 = DATE_AND_TIME ( #27, #32 ) ;
#106 = PLANE ( 'NONE',  #146 ) ;
#107 = ORIENTED_EDGE ( 'NONE', *, *, #150, .T. ) ;
#108 = ORIENTED_EDGE ( 'NONE', *, *, #208, .T. ) ;
#109 = EDGE_CURVE ( 'NONE', #235, #159, #13, .T. ) ;
#110 = APPLICATION_PROTOCOL_DEFINITION ( 'international standard', 'config_control_design', 1994, #252 ) ;
#111 = LINE ( 'NONE', #148, #245 ) ;
#112 = AXIS2_PLACEMENT_3D ( 'NONE', #17, #168, #129 ) ;
#113 = LINE ( 'NONE', #169, #219 ) ;
#114 = CARTESIAN_POINT ( 'NONE',  ( -4.000000000000000000, 0.000000000000000000, 5.000000000000000000 ) ) ;
#115 = PRODUCT ( 'b655', 'b655', '', ( #139 ) ) ;
#116 = ADVANCED_FACE ( 'NONE', ( #149 ), #131, .T. ) ;
#117 = CYLINDRICAL_SURFACE ( 'NONE', #164, 7.000000000000000000 ) ;
#118 = DIRECTION ( 'NONE',  ( 0.000000000000000000, 0.000000000000000000, 1.000000000000000000 ) ) ;
#119 = APPROVAL_PERSON_ORGANIZATION ( #145, #64, #210 ) ;
#120 = EDGE_CURVE ( 'NONE', #138, #206, #154, .T. ) ;
#121 = CARTESIAN_POINT ( 'NONE',  ( 4.000000000000000000, 4.898587196589412829E-16, 125.0000000000000000 ) ) ;
#122 = CC_DESIGN_PERSON_AND_ORGANIZATION_ASSIGNMENT ( #35, #190, ( #103 ) ) ;
#123 = EDGE_LOOP ( 'NONE', ( #108, #135 ) ) ;
#124 = VERTEX_POINT ( 'NONE', #114 ) ;
#125 = ADVANCED_FACE ( 'NONE', ( #207 ), #166, .T. ) ;
#126 = FACE_OUTER_BOUND ( 'NONE', #123, .T. ) ;
#127 = ORIENTED_EDGE ( 'NONE', *, *, #120, .T. ) ;
#128 = CARTESIAN_POINT ( 'NONE',  ( 7.000000000000000000, 8.572527594031473190E-16, 5.000000000000000000 ) ) ;
#129 = DIRECTION ( 'NONE',  ( -1.000000000000000000, 0.000000000000000000, 0.000000000000000000 ) ) ;
#130 = CARTESIAN_POINT ( 'NONE',  ( 0.000000000000000000, 0.000000000000000000, 5.000000000000000000 ) ) ;
#131 = PLANE ( 'NONE',  #11 ) ;
#132 = CARTESIAN_POINT ( 'NONE',  ( 0.000000000000000000, 0.000000000000000000, 125.0000000000000000 ) ) ;
#133 = APPROVAL ( #2, 'NEURÈENÝ' ) ;
#134 = DIRECTION ( 'NONE',  ( 0.000000000000000000, 0.000000000000000000, 1.000000000000000000 ) ) ;
#135 = ORIENTED_EDGE ( 'NONE', *, *, #98, .T. ) ;
#136 = CALENDAR_DATE ( 2023, 12, 2 ) ;
#137 = PRODUCT_DEFINITION ( 'NEZNÁMÝ', '', #103, #229 ) ;
#138 = VERTEX_POINT ( 'NONE', #248 ) ;
#139 = MECHANICAL_CONTEXT ( 'NONE', #101, 'mechanical' ) ;
#140 = ORIENTED_EDGE ( 'NONE', *, *, #184, .T. ) ;
#141 = AXIS2_PLACEMENT_3D ( 'NONE', #226, #5, #92 ) ;
#142 = LOCAL_TIME ( 12, 55, 16.00000000000000000, #96 ) ;
#143 = ORIENTED_EDGE ( 'NONE', *, *, #217, .T. ) ;
#144 = FACE_OUTER_BOUND ( 'NONE', #1, .T. ) ;
#145 = PERSON_AND_ORGANIZATION ( #186, #48 ) ;
#146 = AXIS2_PLACEMENT_3D ( 'NONE', #33, #7, #178 ) ;
#147 = DIRECTION ( 'NONE',  ( -0.000000000000000000, -0.000000000000000000, -1.000000000000000000 ) ) ;
#148 = CARTESIAN_POINT ( 'NONE',  ( -7.000000000000000000, 0.000000000000000000, 5.000000000000000000 ) ) ;
#149 = FACE_OUTER_BOUND ( 'NONE', #54, .T. ) ;
#150 = EDGE_CURVE ( 'NONE', #9, #206, #113, .T. ) ;
#151 = PRODUCT_DEFINITION_SHAPE ( 'NONE', 'NONE',  #137 ) ;
#152 = DIRECTION ( 'NONE',  ( 0.000000000000000000, 0.000000000000000000, 1.000000000000000000 ) ) ;
#153 = EDGE_CURVE ( 'NONE', #159, #124, #68, .T. ) ;
#154 = CIRCLE ( 'NONE', #255, 7.000000000000000000 ) ;
#155 = CC_DESIGN_APPROVAL ( #133, ( #103 ) ) ;
#156 = VERTEX_POINT ( 'NONE', #59 ) ;
#157 = PERSON_AND_ORGANIZATION ( #186, #48 ) ;
#158 = ORIENTED_EDGE ( 'NONE', *, *, #61, .T. ) ;
#159 = VERTEX_POINT ( 'NONE', #212 ) ;
#160 = PERSON_AND_ORGANIZATION ( #186, #48 ) ;
#161 = FACE_OUTER_BOUND ( 'NONE', #74, .T. ) ;
#162 = PERSON_AND_ORGANIZATION_ROLE ( 'creator' ) ;
#163 = ORIENTED_EDGE ( 'NONE', *, *, #120, .F. ) ;
#164 = AXIS2_PLACEMENT_3D ( 'NONE', #95, #78, #57 ) ;
#165 =( GEOMETRIC_REPRESENTATION_CONTEXT ( 3 ) GLOBAL_UNCERTAINTY_ASSIGNED_CONTEXT ( ( #91 ) ) GLOBAL_UNIT_ASSIGNED_CONTEXT ( ( #25, #254, #65 ) ) REPRESENTATION_CONTEXT ( 'NONE', 'WORKASPACE' ) );
#166 = CYLINDRICAL_SURFACE ( 'NONE', #112, 4.000000000000000000 ) ;
#167 = APPROVAL_STATUS ( 'not_yet_approved' ) ;
#168 = DIRECTION ( 'NONE',  ( -0.000000000000000000, -0.000000000000000000, -1.000000000000000000 ) ) ;
#169 = CARTESIAN_POINT ( 'NONE',  ( 7.000000000000000000, 8.572527594031473190E-16, 5.000000000000000000 ) ) ;
#170 = CIRCLE ( 'NONE', #86, 7.000000000000000000 ) ;
#171 = CIRCLE ( 'NONE', #241, 7.000000000000000000 ) ;
#172 = SECURITY_CLASSIFICATION ( '', '', #231 ) ;
#173 = DIRECTION ( 'NONE',  ( 0.000000000000000000, 0.000000000000000000, 1.000000000000000000 ) ) ;
#174 = DIRECTION ( 'NONE',  ( 0.000000000000000000, 0.000000000000000000, 1.000000000000000000 ) ) ;
#175 = DIRECTION ( 'NONE',  ( 1.000000000000000000, 0.000000000000000000, 0.000000000000000000 ) ) ;
#176 = DATE_AND_TIME ( #40, #142 ) ;
#177 = APPROVAL_DATE_TIME ( #105, #133 ) ;
#178 = DIRECTION ( 'NONE',  ( 1.000000000000000000, 0.000000000000000000, -0.000000000000000000 ) ) ;
#179 = CC_DESIGN_DATE_AND_TIME_ASSIGNMENT ( #180, #218, ( #137 ) ) ;
#180 = DATE_AND_TIME ( #136, #209 ) ;
#181 = ORIENTED_EDGE ( 'NONE', *, *, #109, .T. ) ;
#182 = ORIENTED_EDGE ( 'NONE', *, *, #98, .F. ) ;
#183 = APPROVAL_PERSON_ORGANIZATION ( #238, #81, #72 ) ;
#184 = EDGE_CURVE ( 'NONE', #206, #138, #104, .T. ) ;
#185 = ORIENTED_EDGE ( 'NONE', *, *, #153, .T. ) ;
#186 = PERSON ( 'NEURÈENÝ', 'NEURÈENÝ', 'NEURÈENÝ', ('NEURÈENÝ'), ('NEURÈENÝ'), ('NEURÈENÝ') ) ;
#187 = APPROVAL_STATUS ( 'not_yet_approved' ) ;
#188 = PERSON_AND_ORGANIZATION ( #186, #48 ) ;
#189 = CARTESIAN_POINT ( 'NONE',  ( 0.000000000000000000, 0.000000000000000000, 0.000000000000000000 ) ) ;
#190 = PERSON_AND_ORGANIZATION_ROLE ( 'design_supplier' ) ;
#191 = CARTESIAN_POINT ( 'NONE',  ( 4.000000000000000000, 4.898587196589412829E-16, 125.0000000000000000 ) ) ;
#192 = CC_DESIGN_PERSON_AND_ORGANIZATION_ASSIGNMENT ( #157, #236, ( #103 ) ) ;
#193 = DIRECTION ( 'NONE',  ( -0.000000000000000000, -0.000000000000000000, -1.000000000000000000 ) ) ;
#194 = DIRECTION ( 'NONE',  ( 1.000000000000000000, 0.000000000000000000, 0.000000000000000000 ) ) ;
#195 = CARTESIAN_POINT ( 'NONE',  ( 0.000000000000000000, 0.000000000000000000, 125.0000000000000000 ) ) ;
#196 = CARTESIAN_POINT ( 'NONE',  ( 0.000000000000000000, 0.000000000000000000, 5.000000000000000000 ) ) ;
#197 = LINE ( 'NONE', #44, #100 ) ;
#198 = SHAPE_DEFINITION_REPRESENTATION ( #151, #253 ) ;
#199 = VECTOR ( 'NONE', #193, 1000.000000000000000 ) ;
#200 = COORDINATED_UNIVERSAL_TIME_OFFSET ( 1, 0, .AHEAD. ) ;
#201 = AXIS2_PLACEMENT_3D ( 'NONE', #213, #118, #194 ) ;
#202 = CARTESIAN_POINT ( 'NONE',  ( 0.000000000000000000, 0.000000000000000000, 0.000000000000000000 ) ) ;
#203 = ORIENTED_EDGE ( 'NONE', *, *, #233, .T. ) ;
#204 = CIRCLE ( 'NONE', #83, 4.000000000000000000 ) ;
#205 = APPLICATION_PROTOCOL_DEFINITION ( 'international standard', 'config_control_design', 1994, #101 ) ;
#206 = VERTEX_POINT ( 'NONE', #22 ) ;
#207 = FACE_OUTER_BOUND ( 'NONE', #29, .T. ) ;
#208 = EDGE_CURVE ( 'NONE', #156, #9, #171, .T. ) ;
#209 = LOCAL_TIME ( 12, 55, 16.00000000000000000, #66 ) ;
#210 = APPROVAL_ROLE ( '' ) ;
#211 = CARTESIAN_POINT ( 'NONE',  ( 0.000000000000000000, 0.000000000000000000, 0.000000000000000000 ) ) ;
#212 = CARTESIAN_POINT ( 'NONE',  ( 4.000000000000000000, 4.898587196589412829E-16, 5.000000000000000000 ) ) ;
#213 = CARTESIAN_POINT ( 'NONE',  ( 0.000000000000000000, 0.000000000000000000, 0.000000000000000000 ) ) ;
#214 = CC_DESIGN_PERSON_AND_ORGANIZATION_ASSIGNMENT ( #8, #162, ( #137 ) ) ;
#215 = APPROVAL_PERSON_ORGANIZATION ( #47, #133, #89 ) ;
#216 = DIRECTION ( 'NONE',  ( -0.000000000000000000, -0.000000000000000000, -1.000000000000000000 ) ) ;
#217 = EDGE_CURVE ( 'NONE', #235, #88, #204, .T. ) ;
#218 = DATE_TIME_ROLE ( 'creation_date' ) ;
#219 = VECTOR ( 'NONE', #147, 1000.000000000000000 ) ;
#220 = AXIS2_PLACEMENT_3D ( 'NONE', #202, #234, #6 ) ;
#221 = APPROVAL_DATE_TIME ( #176, #64 ) ;
#222 = ORIENTED_EDGE ( 'NONE', *, *, #184, .F. ) ;
#223 = FACE_BOUND ( 'NONE', #69, .T. ) ;
#224 = DATE_AND_TIME ( #49, #251 ) ;
#225 = ORIENTED_EDGE ( 'NONE', *, *, #246, .T. ) ;
#226 = CARTESIAN_POINT ( 'NONE',  ( 0.000000000000000000, 0.000000000000000000, 125.0000000000000000 ) ) ;
#227 = EDGE_CURVE ( 'NONE', #88, #124, #197, .T. ) ;
#228 = DIRECTION ( 'NONE',  ( -0.000000000000000000, -0.000000000000000000, -1.000000000000000000 ) ) ;
#229 = DESIGN_CONTEXT ( 'detailed design', #252, 'design' ) ;
#230 = CARTESIAN_POINT ( 'NONE',  ( 0.000000000000000000, 0.000000000000000000, 5.000000000000000000 ) ) ;
#231 = SECURITY_CLASSIFICATION_LEVEL ( 'unclassified' ) ;
#232 = CIRCLE ( 'NONE', #14, 4.000000000000000000 ) ;
#233 = EDGE_CURVE ( 'NONE', #88, #235, #232, .T. ) ;
#234 = DIRECTION ( 'NONE',  ( 0.000000000000000000, 0.000000000000000000, 1.000000000000000000 ) ) ;
#235 = VERTEX_POINT ( 'NONE', #121 ) ;
#236 = PERSON_AND_ORGANIZATION_ROLE ( 'creator' ) ;
#237 = ORIENTED_EDGE ( 'NONE', *, *, #61, .F. ) ;
#238 = PERSON_AND_ORGANIZATION ( #186, #48 ) ;
#239 = EDGE_LOOP ( 'NONE', ( #163, #222 ) ) ;
#240 = ORIENTED_EDGE ( 'NONE', *, *, #208, .F. ) ;
#241 = AXIS2_PLACEMENT_3D ( 'NONE', #102, #174, #249 ) ;
#242 = COORDINATED_UNIVERSAL_TIME_OFFSET ( 1, 0, .AHEAD. ) ;
#243 = CARTESIAN_POINT ( 'NONE',  ( 0.000000000000000000, 0.000000000000000000, 125.0000000000000000 ) ) ;
#244 = PLANE ( 'NONE',  #62 ) ;
#245 = VECTOR ( 'NONE', #60, 1000.000000000000000 ) ;
#246 = EDGE_CURVE ( 'NONE', #124, #159, #20, .T. ) ;
#247 = DIRECTION ( 'NONE',  ( 1.000000000000000000, 0.000000000000000000, -0.000000000000000000 ) ) ;
#248 = CARTESIAN_POINT ( 'NONE',  ( -7.000000000000000000, 0.000000000000000000, 0.000000000000000000 ) ) ;
#249 = DIRECTION ( 'NONE',  ( 1.000000000000000000, 0.000000000000000000, 0.000000000000000000 ) ) ;
#250 = PRODUCT_RELATED_PRODUCT_CATEGORY ( 'detail', '', ( #115 ) ) ;
#251 = LOCAL_TIME ( 12, 55, 16.00000000000000000, #53 ) ;
#252 = APPLICATION_CONTEXT ( 'configuration controlled 3d designs of mechanical parts and assemblies' ) ;
#253 = ADVANCED_BREP_SHAPE_REPRESENTATION ( 'b655', ( #55, #220 ), #165 ) ;
#254 =( NAMED_UNIT ( * ) PLANE_ANGLE_UNIT ( ) SI_UNIT ( $, .RADIAN. ) );
#255 = AXIS2_PLACEMENT_3D ( 'NONE', #211, #97, #38 ) ;
ENDSEC;
END-ISO-10303-21;
