ISO-10303-21;
HEADER;
FILE_DESCRIPTION (( 'STEP AP203' ),
    '1' );
FILE_NAME ('0b9c.STEP',
    '2023-02-12T12:33:50',
    ( '' ),
    ( '' ),
    'SwSTEP 2.0',
    'SolidWorks 2019',
    '' );
FILE_SCHEMA (( 'CONFIG_CONTROL_DESIGN' ));
ENDSEC;

DATA;
#1 = CYLINDRICAL_SURFACE ( 'NONE', #94, 4.000000000000000000 ) ;
#2 = PRODUCT_DEFINITION_SHAPE ( 'NONE', 'NONE',  #147 ) ;
#3 = VERTEX_POINT ( 'NONE', #55 ) ;
#4 = EDGE_CURVE ( 'NONE', #58, #33, #72, .T. ) ;
#5 = AXIS2_PLACEMENT_3D ( 'NONE', #236, #134, #208 ) ;
#6 = COORDINATED_UNIVERSAL_TIME_OFFSET ( 1, 0, .AHEAD. ) ;
#7 = DIRECTION ( 'NONE',  ( -0.000000000000000000, -0.000000000000000000, -1.000000000000000000 ) ) ;
#8 = AXIS2_PLACEMENT_3D ( 'NONE', #194, #65, #105 ) ;
#9 = DIRECTION ( 'NONE',  ( -0.000000000000000000, -0.000000000000000000, -1.000000000000000000 ) ) ;
#10 = DIRECTION ( 'NONE',  ( 0.000000000000000000, 0.000000000000000000, 1.000000000000000000 ) ) ;
#11 = AXIS2_PLACEMENT_3D ( 'NONE', #12, #200, #46 ) ;
#12 = CARTESIAN_POINT ( 'NONE',  ( 0.000000000000000000, 0.000000000000000000, 160.0000000000000000 ) ) ;
#13 = CC_DESIGN_SECURITY_CLASSIFICATION ( #171, ( #210 ) ) ;
#14 = ORGANIZATION ( 'NEURÈENÝ', 'NEURÈENÝ', '' ) ;
#15 = AXIS2_PLACEMENT_3D ( 'NONE', #24, #10, #161 ) ;
#16 = ORIENTED_EDGE ( 'NONE', *, *, #138, .T. ) ;
#17 =( LENGTH_UNIT ( ) NAMED_UNIT ( * ) SI_UNIT ( .MILLI., .METRE. ) );
#18 = PERSON_AND_ORGANIZATION ( #193, #14 ) ;
#19 = EDGE_CURVE ( 'NONE', #141, #95, #80, .T. ) ;
#20 = APPROVAL_PERSON_ORGANIZATION ( #41, #114, #160 ) ;
#21 = CC_DESIGN_PERSON_AND_ORGANIZATION_ASSIGNMENT ( #18, #61, ( #132 ) ) ;
#22 = CARTESIAN_POINT ( 'NONE',  ( -2.250000000000000000, 0.000000000000000000, 160.0000000000000000 ) ) ;
#23 = CC_DESIGN_PERSON_AND_ORGANIZATION_ASSIGNMENT ( #109, #102, ( #171 ) ) ;
#24 = CARTESIAN_POINT ( 'NONE',  ( 0.000000000000000000, 0.000000000000000000, 3.000000000000000000 ) ) ;
#25 = DIRECTION ( 'NONE',  ( 0.000000000000000000, 0.000000000000000000, 1.000000000000000000 ) ) ;
#26 = EDGE_CURVE ( 'NONE', #3, #58, #233, .T. ) ;
#27 = CARTESIAN_POINT ( 'NONE',  ( 2.250000000000000000, 2.755455298081544285E-16, 160.0000000000000000 ) ) ;
#28 = DIRECTION ( 'NONE',  ( 0.000000000000000000, 0.000000000000000000, 1.000000000000000000 ) ) ;
#29 = FACE_OUTER_BOUND ( 'NONE', #75, .T. ) ;
#30 = APPROVAL_ROLE ( '' ) ;
#31 = DIRECTION ( 'NONE',  ( 0.000000000000000000, 0.000000000000000000, 1.000000000000000000 ) ) ;
#32 = DIRECTION ( 'NONE',  ( 0.000000000000000000, 0.000000000000000000, 1.000000000000000000 ) ) ;
#33 = VERTEX_POINT ( 'NONE', #39 ) ;
#34 = MECHANICAL_CONTEXT ( 'NONE', #253, 'mechanical' ) ;
#35 = CALENDAR_DATE ( 2023, 12, 2 ) ;
#36 = DIRECTION ( 'NONE',  ( -0.000000000000000000, -0.000000000000000000, -1.000000000000000000 ) ) ;
#37 =( NAMED_UNIT ( * ) SI_UNIT ( $, .STERADIAN. ) SOLID_ANGLE_UNIT ( ) );
#38 = DIRECTION ( 'NONE',  ( -1.000000000000000000, 0.000000000000000000, 0.000000000000000000 ) ) ;
#39 = CARTESIAN_POINT ( 'NONE',  ( 2.250000000000000000, 2.755455298081544285E-16, 3.000000000000000000 ) ) ;
#40 = ADVANCED_BREP_SHAPE_REPRESENTATION ( '0b9c', ( #77, #92 ), #42 ) ;
#41 = PERSON_AND_ORGANIZATION ( #193, #14 ) ;
#42 =( GEOMETRIC_REPRESENTATION_CONTEXT ( 3 ) GLOBAL_UNCERTAINTY_ASSIGNED_CONTEXT ( ( #104 ) ) GLOBAL_UNIT_ASSIGNED_CONTEXT ( ( #17, #53, #37 ) ) REPRESENTATION_CONTEXT ( 'NONE', 'WORKASPACE' ) );
#43 = DIRECTION ( 'NONE',  ( -0.000000000000000000, -0.000000000000000000, -1.000000000000000000 ) ) ;
#44 = ADVANCED_FACE ( 'NONE', ( #185, #135 ), #116, .T. ) ;
#45 = CALENDAR_DATE ( 2023, 12, 2 ) ;
#46 = DIRECTION ( 'NONE',  ( -1.000000000000000000, 0.000000000000000000, 0.000000000000000000 ) ) ;
#47 = APPLICATION_CONTEXT ( 'configuration controlled 3d designs of mechanical parts and assemblies' ) ;
#48 = ORIENTED_EDGE ( 'NONE', *, *, #138, .F. ) ;
#49 = LOCAL_TIME ( 13, 33, 50.00000000000000000, #243 ) ;
#50 = CARTESIAN_POINT ( 'NONE',  ( -4.000000000000000000, 0.000000000000000000, 0.000000000000000000 ) ) ;
#51 = APPROVAL_STATUS ( 'not_yet_approved' ) ;
#52 = DIRECTION ( 'NONE',  ( 1.000000000000000000, 0.000000000000000000, 0.000000000000000000 ) ) ;
#53 =( NAMED_UNIT ( * ) PLANE_ANGLE_UNIT ( ) SI_UNIT ( $, .RADIAN. ) );
#54 = SECURITY_CLASSIFICATION_LEVEL ( 'unclassified' ) ;
#55 = CARTESIAN_POINT ( 'NONE',  ( -2.250000000000000000, 0.000000000000000000, 160.0000000000000000 ) ) ;
#56 = VECTOR ( 'NONE', #9, 1000.000000000000000 ) ;
#57 = EDGE_LOOP ( 'NONE', ( #198, #120, #232, #86 ) ) ;
#58 = VERTEX_POINT ( 'NONE', #27 ) ;
#59 = ADVANCED_FACE ( 'NONE', ( #177 ), #1, .T. ) ;
#60 = AXIS2_PLACEMENT_3D ( 'NONE', #228, #222, #38 ) ;
#61 = PERSON_AND_ORGANIZATION_ROLE ( 'design_owner' ) ;
#62 = AXIS2_PLACEMENT_3D ( 'NONE', #165, #28, #245 ) ;
#63 = EDGE_CURVE ( 'NONE', #224, #214, #153, .T. ) ;
#64 = DIRECTION ( 'NONE',  ( 1.000000000000000000, 0.000000000000000000, 0.000000000000000000 ) ) ;
#65 = DIRECTION ( 'NONE',  ( 0.000000000000000000, 0.000000000000000000, 1.000000000000000000 ) ) ;
#66 = DATE_TIME_ROLE ( 'classification_date' ) ;
#67 = FACE_OUTER_BOUND ( 'NONE', #146, .T. ) ;
#68 = ORIENTED_EDGE ( 'NONE', *, *, #174, .F. ) ;
#69 = CC_DESIGN_PERSON_AND_ORGANIZATION_ASSIGNMENT ( #88, #221, ( #210 ) ) ;
#70 = DIRECTION ( 'NONE',  ( 1.000000000000000000, 0.000000000000000000, -0.000000000000000000 ) ) ;
#71 = EDGE_CURVE ( 'NONE', #3, #216, #188, .T. ) ;
#72 = LINE ( 'NONE', #79, #100 ) ;
#73 = ORIENTED_EDGE ( 'NONE', *, *, #26, .T. ) ;
#74 = LOCAL_TIME ( 13, 33, 50.00000000000000000, #6 ) ;
#75 = EDGE_LOOP ( 'NONE', ( #73, #110 ) ) ;
#76 = CC_DESIGN_PERSON_AND_ORGANIZATION_ASSIGNMENT ( #82, #173, ( #147 ) ) ;
#77 = MANIFOLD_SOLID_BREP ( 'Pøidat vysunutím3', #207 ) ;
#78 = DIRECTION ( 'NONE',  ( -0.000000000000000000, -0.000000000000000000, -1.000000000000000000 ) ) ;
#79 = CARTESIAN_POINT ( 'NONE',  ( 2.250000000000000000, 2.755455298081544285E-16, 160.0000000000000000 ) ) ;
#80 = LINE ( 'NONE', #241, #247 ) ;
#81 = CIRCLE ( 'NONE', #179, 4.000000000000000000 ) ;
#82 = PERSON_AND_ORGANIZATION ( #193, #14 ) ;
#83 = CARTESIAN_POINT ( 'NONE',  ( 0.000000000000000000, 0.000000000000000000, 3.000000000000000000 ) ) ;
#84 = APPROVAL_DATE_TIME ( #124, #114 ) ;
#85 = CARTESIAN_POINT ( 'NONE',  ( 0.000000000000000000, 0.000000000000000000, 160.0000000000000000 ) ) ;
#86 = ORIENTED_EDGE ( 'NONE', *, *, #174, .T. ) ;
#87 = DIRECTION ( 'NONE',  ( 0.000000000000000000, 0.000000000000000000, 1.000000000000000000 ) ) ;
#88 = PERSON_AND_ORGANIZATION ( #193, #14 ) ;
#89 = PERSON_AND_ORGANIZATION ( #193, #14 ) ;
#90 = CC_DESIGN_PERSON_AND_ORGANIZATION_ASSIGNMENT ( #166, #145, ( #210 ) ) ;
#91 = LOCAL_TIME ( 13, 33, 50.00000000000000000, #211 ) ;
#92 = AXIS2_PLACEMENT_3D ( 'NONE', #227, #87, #155 ) ;
#93 = EDGE_CURVE ( 'NONE', #33, #216, #213, .T. ) ;
#94 = AXIS2_PLACEMENT_3D ( 'NONE', #150, #148, #223 ) ;
#95 = VERTEX_POINT ( 'NONE', #50 ) ;
#96 = PERSON_AND_ORGANIZATION ( #193, #14 ) ;
#97 = CARTESIAN_POINT ( 'NONE',  ( 4.000000000000000000, 4.898587196589412829E-16, 3.000000000000000000 ) ) ;
#98 = APPROVAL_DATE_TIME ( #242, #119 ) ;
#99 = CC_DESIGN_DATE_AND_TIME_ASSIGNMENT ( #142, #66, ( #171 ) ) ;
#100 = VECTOR ( 'NONE', #43, 1000.000000000000000 ) ;
#101 = EDGE_LOOP ( 'NONE', ( #205, #235 ) ) ;
#102 = PERSON_AND_ORGANIZATION_ROLE ( 'classification_officer' ) ;
#103 = CARTESIAN_POINT ( 'NONE',  ( -4.000000000000000000, 0.000000000000000000, 3.000000000000000000 ) ) ;
#104 = UNCERTAINTY_MEASURE_WITH_UNIT (LENGTH_MEASURE( 1.000000000000000082E-05 ), #17, 'distance_accuracy_value', 'NONE');
#105 = DIRECTION ( 'NONE',  ( 1.000000000000000000, 0.000000000000000000, 0.000000000000000000 ) ) ;
#106 = CIRCLE ( 'NONE', #111, 2.250000000000000000 ) ;
#107 = FACE_OUTER_BOUND ( 'NONE', #192, .T. ) ;
#108 = CARTESIAN_POINT ( 'NONE',  ( 0.000000000000000000, 0.000000000000000000, 0.000000000000000000 ) ) ;
#109 = PERSON_AND_ORGANIZATION ( #193, #14 ) ;
#110 = ORIENTED_EDGE ( 'NONE', *, *, #133, .T. ) ;
#111 = AXIS2_PLACEMENT_3D ( 'NONE', #85, #162, #125 ) ;
#112 = ORIENTED_EDGE ( 'NONE', *, *, #156, .T. ) ;
#113 = EDGE_CURVE ( 'NONE', #224, #141, #81, .T. ) ;
#114 = APPROVAL ( #249, 'NEURÈENÝ' ) ;
#115 = ADVANCED_FACE ( 'NONE', ( #107 ), #122, .T. ) ;
#116 = PLANE ( 'NONE',  #251 ) ;
#117 = EDGE_CURVE ( 'NONE', #141, #224, #163, .T. ) ;
#118 = APPROVAL_DATE_TIME ( #254, #250 ) ;
#119 = APPROVAL ( #189, 'NEURÈENÝ' ) ;
#120 = ORIENTED_EDGE ( 'NONE', *, *, #117, .F. ) ;
#121 = ORIENTED_EDGE ( 'NONE', *, *, #26, .F. ) ;
#122 = CYLINDRICAL_SURFACE ( 'NONE', #11, 2.250000000000000000 ) ;
#123 = ORIENTED_EDGE ( 'NONE', *, *, #133, .F. ) ;
#124 = DATE_AND_TIME ( #35, #49 ) ;
#125 = DIRECTION ( 'NONE',  ( 1.000000000000000000, 0.000000000000000000, 0.000000000000000000 ) ) ;
#126 = AXIS2_PLACEMENT_3D ( 'NONE', #129, #196, #244 ) ;
#127 = CARTESIAN_POINT ( 'NONE',  ( -2.250000000000000000, 0.000000000000000000, 3.000000000000000000 ) ) ;
#128 = ORIENTED_EDGE ( 'NONE', *, *, #4, .F. ) ;
#129 = CARTESIAN_POINT ( 'NONE',  ( 0.000000000000000000, 0.000000000000000000, 0.000000000000000000 ) ) ;
#130 = PRODUCT_RELATED_PRODUCT_CATEGORY ( 'detail', '', ( #132 ) ) ;
#131 = ORIENTED_EDGE ( 'NONE', *, *, #93, .T. ) ;
#132 = PRODUCT ( '0b9c', '0b9c', '', ( #34 ) ) ;
#133 = EDGE_CURVE ( 'NONE', #58, #3, #106, .T. ) ;
#134 = DIRECTION ( 'NONE',  ( 0.000000000000000000, 0.000000000000000000, 1.000000000000000000 ) ) ;
#135 = FACE_OUTER_BOUND ( 'NONE', #220, .T. ) ;
#136 = DATE_TIME_ROLE ( 'creation_date' ) ;
#137 = SHAPE_DEFINITION_REPRESENTATION ( #2, #40 ) ;
#138 = EDGE_CURVE ( 'NONE', #214, #95, #218, .T. ) ;
#139 = VECTOR ( 'NONE', #7, 1000.000000000000000 ) ;
#140 = DIRECTION ( 'NONE',  ( 1.000000000000000000, 0.000000000000000000, -0.000000000000000000 ) ) ;
#141 = VERTEX_POINT ( 'NONE', #103 ) ;
#142 = DATE_AND_TIME ( #45, #143 ) ;
#143 = LOCAL_TIME ( 13, 33, 50.00000000000000000, #212 ) ;
#144 = CARTESIAN_POINT ( 'NONE',  ( 0.000000000000000000, 0.000000000000000000, 3.000000000000000000 ) ) ;
#145 = PERSON_AND_ORGANIZATION_ROLE ( 'design_supplier' ) ;
#146 = EDGE_LOOP ( 'NONE', ( #68, #48 ) ) ;
#147 = PRODUCT_DEFINITION ( 'NEZNÁMÝ', '', #210, #229 ) ;
#148 = DIRECTION ( 'NONE',  ( -0.000000000000000000, -0.000000000000000000, -1.000000000000000000 ) ) ;
#149 = ORIENTED_EDGE ( 'NONE', *, *, #4, .T. ) ;
#150 = CARTESIAN_POINT ( 'NONE',  ( 0.000000000000000000, 0.000000000000000000, 3.000000000000000000 ) ) ;
#151 = AXIS2_PLACEMENT_3D ( 'NONE', #252, #36, #169 ) ;
#152 = CYLINDRICAL_SURFACE ( 'NONE', #60, 2.250000000000000000 ) ;
#153 = LINE ( 'NONE', #97, #139 ) ;
#154 = CARTESIAN_POINT ( 'NONE',  ( 4.000000000000000000, 4.898587196589412829E-16, 0.000000000000000000 ) ) ;
#155 = DIRECTION ( 'NONE',  ( 1.000000000000000000, 0.000000000000000000, 0.000000000000000000 ) ) ;
#156 = EDGE_CURVE ( 'NONE', #216, #33, #172, .T. ) ;
#157 = CALENDAR_DATE ( 2023, 12, 2 ) ;
#158 = CC_DESIGN_DATE_AND_TIME_ASSIGNMENT ( #237, #136, ( #147 ) ) ;
#159 = CALENDAR_DATE ( 2023, 12, 2 ) ;
#160 = APPROVAL_ROLE ( '' ) ;
#161 = DIRECTION ( 'NONE',  ( 1.000000000000000000, 0.000000000000000000, 0.000000000000000000 ) ) ;
#162 = DIRECTION ( 'NONE',  ( 0.000000000000000000, 0.000000000000000000, 1.000000000000000000 ) ) ;
#163 = CIRCLE ( 'NONE', #238, 4.000000000000000000 ) ;
#164 = EDGE_LOOP ( 'NONE', ( #123, #149, #131, #199 ) ) ;
#165 = CARTESIAN_POINT ( 'NONE',  ( 0.000000000000000000, 0.000000000000000000, 0.000000000000000000 ) ) ;
#166 = PERSON_AND_ORGANIZATION ( #193, #14 ) ;
#167 = ORIENTED_EDGE ( 'NONE', *, *, #19, .F. ) ;
#168 = CYLINDRICAL_SURFACE ( 'NONE', #151, 4.000000000000000000 ) ;
#169 = DIRECTION ( 'NONE',  ( -1.000000000000000000, 0.000000000000000000, 0.000000000000000000 ) ) ;
#170 = CIRCLE ( 'NONE', #62, 4.000000000000000000 ) ;
#171 = SECURITY_CLASSIFICATION ( '', '', #54 ) ;
#172 = CIRCLE ( 'NONE', #8, 2.250000000000000000 ) ;
#173 = PERSON_AND_ORGANIZATION_ROLE ( 'creator' ) ;
#174 = EDGE_CURVE ( 'NONE', #95, #214, #170, .T. ) ;
#175 = APPROVAL_ROLE ( '' ) ;
#176 = CARTESIAN_POINT ( 'NONE',  ( 0.000000000000000000, 0.000000000000000000, 3.000000000000000000 ) ) ;
#177 = FACE_OUTER_BOUND ( 'NONE', #191, .T. ) ;
#178 = PLANE ( 'NONE',  #195 ) ;
#179 = AXIS2_PLACEMENT_3D ( 'NONE', #144, #31, #52 ) ;
#180 = DIRECTION ( 'NONE',  ( 0.000000000000000000, 0.000000000000000000, 1.000000000000000000 ) ) ;
#181 = ORIENTED_EDGE ( 'NONE', *, *, #113, .F. ) ;
#182 = FACE_OUTER_BOUND ( 'NONE', #57, .T. ) ;
#183 = AXIS2_PLACEMENT_3D ( 'NONE', #203, #248, #70 ) ;
#184 = ADVANCED_FACE ( 'NONE', ( #67 ), #178, .F. ) ;
#185 = FACE_BOUND ( 'NONE', #101, .T. ) ;
#186 = CC_DESIGN_APPROVAL ( #114, ( #210 ) ) ;
#187 = ADVANCED_FACE ( 'NONE', ( #182 ), #168, .T. ) ;
#188 = LINE ( 'NONE', #22, #56 ) ;
#189 = APPROVAL_STATUS ( 'not_yet_approved' ) ;
#190 = ADVANCED_FACE ( 'NONE', ( #255 ), #152, .T. ) ;
#191 = EDGE_LOOP ( 'NONE', ( #181, #204, #16, #167 ) ) ;
#192 = EDGE_LOOP ( 'NONE', ( #128, #121, #215, #112 ) ) ;
#193 = PERSON ( 'NEURÈENÝ', 'NEURÈENÝ', 'NEURÈENÝ', ('NEURÈENÝ'), ('NEURÈENÝ'), ('NEURÈENÝ') ) ;
#194 = CARTESIAN_POINT ( 'NONE',  ( 0.000000000000000000, 0.000000000000000000, 3.000000000000000000 ) ) ;
#195 = AXIS2_PLACEMENT_3D ( 'NONE', #108, #180, #217 ) ;
#196 = DIRECTION ( 'NONE',  ( 0.000000000000000000, 0.000000000000000000, 1.000000000000000000 ) ) ;
#197 = CARTESIAN_POINT ( 'NONE',  ( 4.000000000000000000, 4.898587196589412829E-16, 3.000000000000000000 ) ) ;
#198 = ORIENTED_EDGE ( 'NONE', *, *, #63, .F. ) ;
#199 = ORIENTED_EDGE ( 'NONE', *, *, #71, .F. ) ;
#200 = DIRECTION ( 'NONE',  ( -0.000000000000000000, -0.000000000000000000, -1.000000000000000000 ) ) ;
#201 = ORIENTED_EDGE ( 'NONE', *, *, #117, .T. ) ;
#202 = LOCAL_TIME ( 13, 33, 50.00000000000000000, #231 ) ;
#203 = CARTESIAN_POINT ( 'NONE',  ( 0.000000000000000000, 0.000000000000000000, 160.0000000000000000 ) ) ;
#204 = ORIENTED_EDGE ( 'NONE', *, *, #63, .T. ) ;
#205 = ORIENTED_EDGE ( 'NONE', *, *, #156, .F. ) ;
#206 = ORIENTED_EDGE ( 'NONE', *, *, #113, .T. ) ;
#207 = CLOSED_SHELL ( 'NONE', ( #190, #59, #187, #44, #184, #115, #246 ) ) ;
#208 = DIRECTION ( 'NONE',  ( 1.000000000000000000, 0.000000000000000000, 0.000000000000000000 ) ) ;
#209 = CALENDAR_DATE ( 2023, 12, 2 ) ;
#210 = PRODUCT_DEFINITION_FORMATION_WITH_SPECIFIED_SOURCE ( 'LIBOVOLNÝ', '', #132, .NOT_KNOWN. ) ;
#211 = COORDINATED_UNIVERSAL_TIME_OFFSET ( 1, 0, .AHEAD. ) ;
#212 = COORDINATED_UNIVERSAL_TIME_OFFSET ( 1, 0, .AHEAD. ) ;
#213 = CIRCLE ( 'NONE', #15, 2.250000000000000000 ) ;
#214 = VERTEX_POINT ( 'NONE', #154 ) ;
#215 = ORIENTED_EDGE ( 'NONE', *, *, #71, .T. ) ;
#216 = VERTEX_POINT ( 'NONE', #127 ) ;
#217 = DIRECTION ( 'NONE',  ( 1.000000000000000000, 0.000000000000000000, -0.000000000000000000 ) ) ;
#218 = CIRCLE ( 'NONE', #126, 4.000000000000000000 ) ;
#219 = CC_DESIGN_APPROVAL ( #250, ( #171 ) ) ;
#220 = EDGE_LOOP ( 'NONE', ( #201, #206 ) ) ;
#221 = PERSON_AND_ORGANIZATION_ROLE ( 'creator' ) ;
#222 = DIRECTION ( 'NONE',  ( -0.000000000000000000, -0.000000000000000000, -1.000000000000000000 ) ) ;
#223 = DIRECTION ( 'NONE',  ( -1.000000000000000000, 0.000000000000000000, 0.000000000000000000 ) ) ;
#224 = VERTEX_POINT ( 'NONE', #197 ) ;
#225 = APPROVAL_PERSON_ORGANIZATION ( #89, #250, #30 ) ;
#226 = CC_DESIGN_APPROVAL ( #119, ( #147 ) ) ;
#227 = CARTESIAN_POINT ( 'NONE',  ( 0.000000000000000000, 0.000000000000000000, 0.000000000000000000 ) ) ;
#228 = CARTESIAN_POINT ( 'NONE',  ( 0.000000000000000000, 0.000000000000000000, 160.0000000000000000 ) ) ;
#229 = DESIGN_CONTEXT ( 'detailed design', #47, 'design' ) ;
#230 = PLANE ( 'NONE',  #183 ) ;
#231 = COORDINATED_UNIVERSAL_TIME_OFFSET ( 1, 0, .AHEAD. ) ;
#232 = ORIENTED_EDGE ( 'NONE', *, *, #19, .T. ) ;
#233 = CIRCLE ( 'NONE', #5, 2.250000000000000000 ) ;
#234 = APPLICATION_PROTOCOL_DEFINITION ( 'international standard', 'config_control_design', 1994, #253 ) ;
#235 = ORIENTED_EDGE ( 'NONE', *, *, #93, .F. ) ;
#236 = CARTESIAN_POINT ( 'NONE',  ( 0.000000000000000000, 0.000000000000000000, 160.0000000000000000 ) ) ;
#237 = DATE_AND_TIME ( #157, #74 ) ;
#238 = AXIS2_PLACEMENT_3D ( 'NONE', #83, #32, #64 ) ;
#239 = APPLICATION_PROTOCOL_DEFINITION ( 'international standard', 'config_control_design', 1994, #47 ) ;
#240 = APPROVAL_PERSON_ORGANIZATION ( #96, #119, #175 ) ;
#241 = CARTESIAN_POINT ( 'NONE',  ( -4.000000000000000000, 0.000000000000000000, 3.000000000000000000 ) ) ;
#242 = DATE_AND_TIME ( #159, #91 ) ;
#243 = COORDINATED_UNIVERSAL_TIME_OFFSET ( 1, 0, .AHEAD. ) ;
#244 = DIRECTION ( 'NONE',  ( 1.000000000000000000, 0.000000000000000000, 0.000000000000000000 ) ) ;
#245 = DIRECTION ( 'NONE',  ( 1.000000000000000000, 0.000000000000000000, 0.000000000000000000 ) ) ;
#246 = ADVANCED_FACE ( 'NONE', ( #29 ), #230, .T. ) ;
#247 = VECTOR ( 'NONE', #78, 1000.000000000000000 ) ;
#248 = DIRECTION ( 'NONE',  ( 0.000000000000000000, 0.000000000000000000, 1.000000000000000000 ) ) ;
#249 = APPROVAL_STATUS ( 'not_yet_approved' ) ;
#250 = APPROVAL ( #51, 'NEURÈENÝ' ) ;
#251 = AXIS2_PLACEMENT_3D ( 'NONE', #176, #25, #140 ) ;
#252 = CARTESIAN_POINT ( 'NONE',  ( 0.000000000000000000, 0.000000000000000000, 3.000000000000000000 ) ) ;
#253 = APPLICATION_CONTEXT ( 'configuration controlled 3d designs of mechanical parts and assemblies' ) ;
#254 = DATE_AND_TIME ( #209, #202 ) ;
#255 = FACE_OUTER_BOUND ( 'NONE', #164, .T. ) ;
ENDSEC;
END-ISO-10303-21;
