ISO-10303-21;
HEADER;
FILE_DESCRIPTION (( 'STEP AP203' ),
    '1' );
FILE_NAME ('595d.STEP',
    '2023-02-12T11:38:12',
    ( '' ),
    ( '' ),
    'SwSTEP 2.0',
    'SolidWorks 2019',
    '' );
FILE_SCHEMA (( 'CONFIG_CONTROL_DESIGN' ));
ENDSEC;

DATA;
#1 = DATE_AND_TIME ( #49, #220 ) ;
#2 = EDGE_CURVE ( 'NONE', #178, #83, #155, .T. ) ;
#3 = EDGE_CURVE ( 'NONE', #6, #211, #74, .T. ) ;
#4 = CIRCLE ( 'NONE', #181, 4.250000000000000000 ) ;
#5 = LOCAL_TIME ( 12, 38, 12.00000000000000000, #17 ) ;
#6 = VERTEX_POINT ( 'NONE', #117 ) ;
#7 = EDGE_CURVE ( 'NONE', #211, #6, #4, .T. ) ;
#8 = ORIENTED_EDGE ( 'NONE', *, *, #148, .F. ) ;
#9 = DIRECTION ( 'NONE',  ( 0.000000000000000000, 0.000000000000000000, 1.000000000000000000 ) ) ;
#10 = ORIENTED_EDGE ( 'NONE', *, *, #101, .T. ) ;
#11 = APPROVAL ( #196, 'NEURÈENÝ' ) ;
#12 = CC_DESIGN_PERSON_AND_ORGANIZATION_ASSIGNMENT ( #95, #177, ( #78 ) ) ;
#13 = CARTESIAN_POINT ( 'NONE',  ( -7.000000000000000000, 0.000000000000000000, 0.000000000000000000 ) ) ;
#14 = FACE_OUTER_BOUND ( 'NONE', #145, .T. ) ;
#15 = PERSON_AND_ORGANIZATION ( #77, #25 ) ;
#16 = DIRECTION ( 'NONE',  ( 0.000000000000000000, 0.000000000000000000, 1.000000000000000000 ) ) ;
#17 = COORDINATED_UNIVERSAL_TIME_OFFSET ( 1, 0, .AHEAD. ) ;
#18 = DIRECTION ( 'NONE',  ( 0.000000000000000000, 0.000000000000000000, 1.000000000000000000 ) ) ;
#19 =( NAMED_UNIT ( * ) PLANE_ANGLE_UNIT ( ) SI_UNIT ( $, .RADIAN. ) );
#20 = ADVANCED_FACE ( 'NONE', ( #84 ), #242, .F. ) ;
#21 = AXIS2_PLACEMENT_3D ( 'NONE', #166, #58, #203 ) ;
#22 = APPROVAL_PERSON_ORGANIZATION ( #137, #56, #213 ) ;
#23 = DIRECTION ( 'NONE',  ( 0.000000000000000000, 0.000000000000000000, 1.000000000000000000 ) ) ;
#24 = PRODUCT_RELATED_PRODUCT_CATEGORY ( 'detail', '', ( #78 ) ) ;
#25 = ORGANIZATION ( 'NEURÈENÝ', 'NEURÈENÝ', '' ) ;
#26 = EDGE_CURVE ( 'NONE', #83, #178, #52, .T. ) ;
#27 = APPROVAL_DATE_TIME ( #102, #11 ) ;
#28 = ORIENTED_EDGE ( 'NONE', *, *, #240, .F. ) ;
#29 = LINE ( 'NONE', #150, #165 ) ;
#30 = AXIS2_PLACEMENT_3D ( 'NONE', #122, #55, #32 ) ;
#31 = ORIENTED_EDGE ( 'NONE', *, *, #26, .F. ) ;
#32 = DIRECTION ( 'NONE',  ( -1.000000000000000000, 0.000000000000000000, 0.000000000000000000 ) ) ;
#33 = CC_DESIGN_APPROVAL ( #56, ( #205 ) ) ;
#34 = CALENDAR_DATE ( 2023, 12, 2 ) ;
#35 = DIRECTION ( 'NONE',  ( 1.000000000000000000, 0.000000000000000000, -0.000000000000000000 ) ) ;
#36 = DIRECTION ( 'NONE',  ( 1.000000000000000000, 0.000000000000000000, 0.000000000000000000 ) ) ;
#37 = EDGE_LOOP ( 'NONE', ( #179, #53, #107, #100 ) ) ;
#38 = LOCAL_TIME ( 12, 38, 12.00000000000000000, #239 ) ;
#39 = DIRECTION ( 'NONE',  ( -0.000000000000000000, -0.000000000000000000, -1.000000000000000000 ) ) ;
#40 =( NAMED_UNIT ( * ) SI_UNIT ( $, .STERADIAN. ) SOLID_ANGLE_UNIT ( ) );
#41 = ADVANCED_FACE ( 'NONE', ( #144 ), #109, .T. ) ;
#42 = CARTESIAN_POINT ( 'NONE',  ( 0.000000000000000000, 0.000000000000000000, 0.000000000000000000 ) ) ;
#43 = CARTESIAN_POINT ( 'NONE',  ( 0.000000000000000000, 0.000000000000000000, 5.000000000000000000 ) ) ;
#44 = APPROVAL_PERSON_ORGANIZATION ( #156, #51, #134 ) ;
#45 = DIRECTION ( 'NONE',  ( 1.000000000000000000, 0.000000000000000000, 0.000000000000000000 ) ) ;
#46 = CARTESIAN_POINT ( 'NONE',  ( 0.000000000000000000, 0.000000000000000000, 5.000000000000000000 ) ) ;
#47 = DIRECTION ( 'NONE',  ( 1.000000000000000000, 0.000000000000000000, 0.000000000000000000 ) ) ;
#48 = DATE_AND_TIME ( #176, #38 ) ;
#49 = CALENDAR_DATE ( 2023, 12, 2 ) ;
#50 = FACE_OUTER_BOUND ( 'NONE', #37, .T. ) ;
#51 = APPROVAL ( #195, 'NEURÈENÝ' ) ;
#52 = CIRCLE ( 'NONE', #106, 7.000000000000000000 ) ;
#53 = ORIENTED_EDGE ( 'NONE', *, *, #135, .T. ) ;
#54 = CIRCLE ( 'NONE', #141, 7.000000000000000000 ) ;
#55 = DIRECTION ( 'NONE',  ( -0.000000000000000000, -0.000000000000000000, -1.000000000000000000 ) ) ;
#56 = APPROVAL ( #136, 'NEURÈENÝ' ) ;
#57 = DESIGN_CONTEXT ( 'detailed design', #70, 'design' ) ;
#58 = DIRECTION ( 'NONE',  ( 0.000000000000000000, 0.000000000000000000, 1.000000000000000000 ) ) ;
#59 = DATE_AND_TIME ( #232, #5 ) ;
#60 = EDGE_CURVE ( 'NONE', #83, #233, #223, .T. ) ;
#61 = AXIS2_PLACEMENT_3D ( 'NONE', #192, #127, #36 ) ;
#62 = VECTOR ( 'NONE', #120, 1000.000000000000000 ) ;
#63 = VERTEX_POINT ( 'NONE', #167 ) ;
#64 = CC_DESIGN_PERSON_AND_ORGANIZATION_ASSIGNMENT ( #183, #243, ( #161 ) ) ;
#65 = APPROVAL_PERSON_ORGANIZATION ( #251, #11, #93 ) ;
#66 = CARTESIAN_POINT ( 'NONE',  ( 0.000000000000000000, 0.000000000000000000, 200.0000000000000000 ) ) ;
#67 = CARTESIAN_POINT ( 'NONE',  ( 0.000000000000000000, 0.000000000000000000, 200.0000000000000000 ) ) ;
#68 = AXIS2_PLACEMENT_3D ( 'NONE', #162, #9, #35 ) ;
#69 = AXIS2_PLACEMENT_3D ( 'NONE', #46, #18, #255 ) ;
#70 = APPLICATION_CONTEXT ( 'configuration controlled 3d designs of mechanical parts and assemblies' ) ;
#71 = ORIENTED_EDGE ( 'NONE', *, *, #241, .T. ) ;
#72 = CARTESIAN_POINT ( 'NONE',  ( 0.000000000000000000, 0.000000000000000000, 5.000000000000000000 ) ) ;
#73 = ORIENTED_EDGE ( 'NONE', *, *, #3, .T. ) ;
#74 = CIRCLE ( 'NONE', #217, 4.250000000000000000 ) ;
#75 = FACE_OUTER_BOUND ( 'NONE', #86, .T. ) ;
#76 = PERSON_AND_ORGANIZATION_ROLE ( 'classification_officer' ) ;
#77 = PERSON ( 'NEURÈENÝ', 'NEURÈENÝ', 'NEURÈENÝ', ('NEURÈENÝ'), ('NEURÈENÝ'), ('NEURÈENÝ') ) ;
#78 = PRODUCT ( '595d', '595d', '', ( #236 ) ) ;
#79 = ORIENTED_EDGE ( 'NONE', *, *, #60, .F. ) ;
#80 = APPLICATION_CONTEXT ( 'configuration controlled 3d designs of mechanical parts and assemblies' ) ;
#81 = PRODUCT_DEFINITION ( 'NEZNÁMÝ', '', #161, #57 ) ;
#82 = CARTESIAN_POINT ( 'NONE',  ( 7.000000000000000000, 8.572527594031473190E-16, 5.000000000000000000 ) ) ;
#83 = VERTEX_POINT ( 'NONE', #245 ) ;
#84 = FACE_OUTER_BOUND ( 'NONE', #182, .T. ) ;
#85 = PERSON_AND_ORGANIZATION ( #77, #25 ) ;
#86 = EDGE_LOOP ( 'NONE', ( #160, #108 ) ) ;
#87 = CALENDAR_DATE ( 2023, 12, 2 ) ;
#88 = ADVANCED_BREP_SHAPE_REPRESENTATION ( '595d', ( #188, #140 ), #90 ) ;
#89 = DIRECTION ( 'NONE',  ( 1.000000000000000000, 0.000000000000000000, 0.000000000000000000 ) ) ;
#90 =( GEOMETRIC_REPRESENTATION_CONTEXT ( 3 ) GLOBAL_UNCERTAINTY_ASSIGNED_CONTEXT ( ( #237 ) ) GLOBAL_UNIT_ASSIGNED_CONTEXT ( ( #110, #19, #40 ) ) REPRESENTATION_CONTEXT ( 'NONE', 'WORKASPACE' ) );
#91 = PERSON_AND_ORGANIZATION_ROLE ( 'creator' ) ;
#92 = ADVANCED_FACE ( 'NONE', ( #151 ), #227, .T. ) ;
#93 = APPROVAL_ROLE ( '' ) ;
#94 = LOCAL_TIME ( 12, 38, 12.00000000000000000, #248 ) ;
#95 = PERSON_AND_ORGANIZATION ( #77, #25 ) ;
#96 = APPLICATION_PROTOCOL_DEFINITION ( 'international standard', 'config_control_design', 1994, #80 ) ;
#97 = DIRECTION ( 'NONE',  ( 0.000000000000000000, 0.000000000000000000, 1.000000000000000000 ) ) ;
#98 = AXIS2_PLACEMENT_3D ( 'NONE', #66, #206, #142 ) ;
#99 = CARTESIAN_POINT ( 'NONE',  ( -4.250000000000000000, 0.000000000000000000, 200.0000000000000000 ) ) ;
#100 = ORIENTED_EDGE ( 'NONE', *, *, #241, .F. ) ;
#101 = EDGE_CURVE ( 'NONE', #168, #63, #247, .T. ) ;
#102 = DATE_AND_TIME ( #87, #121 ) ;
#103 = VECTOR ( 'NONE', #212, 1000.000000000000000 ) ;
#104 = LINE ( 'NONE', #82, #62 ) ;
#105 = ORIENTED_EDGE ( 'NONE', *, *, #7, .F. ) ;
#106 = AXIS2_PLACEMENT_3D ( 'NONE', #72, #113, #89 ) ;
#107 = ORIENTED_EDGE ( 'NONE', *, *, #7, .T. ) ;
#108 = ORIENTED_EDGE ( 'NONE', *, *, #2, .T. ) ;
#109 = CYLINDRICAL_SURFACE ( 'NONE', #30, 4.250000000000000000 ) ;
#110 =( LENGTH_UNIT ( ) NAMED_UNIT ( * ) SI_UNIT ( .MILLI., .METRE. ) );
#111 = APPROVAL_DATE_TIME ( #190, #51 ) ;
#112 = EDGE_CURVE ( 'NONE', #63, #168, #172, .T. ) ;
#113 = DIRECTION ( 'NONE',  ( 0.000000000000000000, 0.000000000000000000, 1.000000000000000000 ) ) ;
#114 = DIRECTION ( 'NONE',  ( -1.000000000000000000, 0.000000000000000000, 0.000000000000000000 ) ) ;
#115 = DIRECTION ( 'NONE',  ( 0.000000000000000000, 0.000000000000000000, 1.000000000000000000 ) ) ;
#116 = CC_DESIGN_PERSON_AND_ORGANIZATION_ASSIGNMENT ( #119, #76, ( #205 ) ) ;
#117 = CARTESIAN_POINT ( 'NONE',  ( -4.250000000000000000, 0.000000000000000000, 5.000000000000000000 ) ) ;
#118 = ADVANCED_FACE ( 'NONE', ( #225 ), #250, .T. ) ;
#119 = PERSON_AND_ORGANIZATION ( #77, #25 ) ;
#120 = DIRECTION ( 'NONE',  ( -0.000000000000000000, -0.000000000000000000, -1.000000000000000000 ) ) ;
#121 = LOCAL_TIME ( 12, 38, 12.00000000000000000, #147 ) ;
#122 = CARTESIAN_POINT ( 'NONE',  ( 0.000000000000000000, 0.000000000000000000, 200.0000000000000000 ) ) ;
#123 = CC_DESIGN_APPROVAL ( #11, ( #161 ) ) ;
#124 = PLANE ( 'NONE',  #249 ) ;
#125 = ORIENTED_EDGE ( 'NONE', *, *, #60, .T. ) ;
#126 = DIRECTION ( 'NONE',  ( -0.000000000000000000, -0.000000000000000000, -1.000000000000000000 ) ) ;
#127 = DIRECTION ( 'NONE',  ( 0.000000000000000000, 0.000000000000000000, 1.000000000000000000 ) ) ;
#128 = CIRCLE ( 'NONE', #21, 7.000000000000000000 ) ;
#129 = ADVANCED_FACE ( 'NONE', ( #194, #75 ), #197, .T. ) ;
#130 = DATE_TIME_ROLE ( 'classification_date' ) ;
#131 = CC_DESIGN_DATE_AND_TIME_ASSIGNMENT ( #59, #210, ( #81 ) ) ;
#132 = CARTESIAN_POINT ( 'NONE',  ( 0.000000000000000000, 0.000000000000000000, 5.000000000000000000 ) ) ;
#133 = AXIS2_PLACEMENT_3D ( 'NONE', #229, #170, #208 ) ;
#134 = APPROVAL_ROLE ( '' ) ;
#135 = EDGE_CURVE ( 'NONE', #63, #211, #154, .T. ) ;
#136 = APPROVAL_STATUS ( 'not_yet_approved' ) ;
#137 = PERSON_AND_ORGANIZATION ( #77, #25 ) ;
#138 = VECTOR ( 'NONE', #149, 1000.000000000000000 ) ;
#139 = CARTESIAN_POINT ( 'NONE',  ( 0.000000000000000000, 0.000000000000000000, 5.000000000000000000 ) ) ;
#140 = AXIS2_PLACEMENT_3D ( 'NONE', #42, #115, #45 ) ;
#141 = AXIS2_PLACEMENT_3D ( 'NONE', #184, #97, #201 ) ;
#142 = DIRECTION ( 'NONE',  ( -1.000000000000000000, 0.000000000000000000, 0.000000000000000000 ) ) ;
#143 = ORIENTED_EDGE ( 'NONE', *, *, #148, .T. ) ;
#144 = FACE_OUTER_BOUND ( 'NONE', #186, .T. ) ;
#145 = EDGE_LOOP ( 'NONE', ( #10, #224 ) ) ;
#146 = CARTESIAN_POINT ( 'NONE',  ( -7.000000000000000000, 0.000000000000000000, 5.000000000000000000 ) ) ;
#147 = COORDINATED_UNIVERSAL_TIME_OFFSET ( 1, 0, .AHEAD. ) ;
#148 = EDGE_CURVE ( 'NONE', #178, #244, #104, .T. ) ;
#149 = DIRECTION ( 'NONE',  ( -0.000000000000000000, -0.000000000000000000, -1.000000000000000000 ) ) ;
#150 = CARTESIAN_POINT ( 'NONE',  ( -4.250000000000000000, 0.000000000000000000, 200.0000000000000000 ) ) ;
#151 = FACE_OUTER_BOUND ( 'NONE', #189, .T. ) ;
#152 = CYLINDRICAL_SURFACE ( 'NONE', #98, 4.250000000000000000 ) ;
#153 = DIRECTION ( 'NONE',  ( 1.000000000000000000, 0.000000000000000000, 0.000000000000000000 ) ) ;
#154 = LINE ( 'NONE', #199, #103 ) ;
#155 = CIRCLE ( 'NONE', #187, 7.000000000000000000 ) ;
#156 = PERSON_AND_ORGANIZATION ( #77, #25 ) ;
#157 = EDGE_LOOP ( 'NONE', ( #171, #105 ) ) ;
#158 = CC_DESIGN_PERSON_AND_ORGANIZATION_ASSIGNMENT ( #15, #91, ( #81 ) ) ;
#159 = EDGE_CURVE ( 'NONE', #244, #233, #54, .T. ) ;
#160 = ORIENTED_EDGE ( 'NONE', *, *, #26, .T. ) ;
#161 = PRODUCT_DEFINITION_FORMATION_WITH_SPECIFIED_SOURCE ( 'LIBOVOLNÝ', '', #78, .NOT_KNOWN. ) ;
#162 = CARTESIAN_POINT ( 'NONE',  ( 0.000000000000000000, 0.000000000000000000, 0.000000000000000000 ) ) ;
#163 = PERSON_AND_ORGANIZATION_ROLE ( 'design_supplier' ) ;
#164 = DIRECTION ( 'NONE',  ( 1.000000000000000000, 0.000000000000000000, 0.000000000000000000 ) ) ;
#165 = VECTOR ( 'NONE', #126, 1000.000000000000000 ) ;
#166 = CARTESIAN_POINT ( 'NONE',  ( 0.000000000000000000, 0.000000000000000000, 0.000000000000000000 ) ) ;
#167 = CARTESIAN_POINT ( 'NONE',  ( 4.250000000000000000, 5.204748896376250699E-16, 200.0000000000000000 ) ) ;
#168 = VERTEX_POINT ( 'NONE', #99 ) ;
#169 = ORIENTED_EDGE ( 'NONE', *, *, #135, .F. ) ;
#170 = DIRECTION ( 'NONE',  ( -0.000000000000000000, -0.000000000000000000, -1.000000000000000000 ) ) ;
#171 = ORIENTED_EDGE ( 'NONE', *, *, #3, .F. ) ;
#172 = CIRCLE ( 'NONE', #219, 4.250000000000000000 ) ;
#173 = COORDINATED_UNIVERSAL_TIME_OFFSET ( 1, 0, .AHEAD. ) ;
#174 = PRODUCT_DEFINITION_SHAPE ( 'NONE', 'NONE',  #81 ) ;
#175 = DIRECTION ( 'NONE',  ( 0.000000000000000000, 0.000000000000000000, 1.000000000000000000 ) ) ;
#176 = CALENDAR_DATE ( 2023, 12, 2 ) ;
#177 = PERSON_AND_ORGANIZATION_ROLE ( 'design_owner' ) ;
#178 = VERTEX_POINT ( 'NONE', #180 ) ;
#179 = ORIENTED_EDGE ( 'NONE', *, *, #112, .F. ) ;
#180 = CARTESIAN_POINT ( 'NONE',  ( 7.000000000000000000, 8.572527594031473190E-16, 5.000000000000000000 ) ) ;
#181 = AXIS2_PLACEMENT_3D ( 'NONE', #139, #23, #164 ) ;
#182 = EDGE_LOOP ( 'NONE', ( #28, #207 ) ) ;
#183 = PERSON_AND_ORGANIZATION ( #77, #25 ) ;
#184 = CARTESIAN_POINT ( 'NONE',  ( 0.000000000000000000, 0.000000000000000000, 0.000000000000000000 ) ) ;
#185 = SECURITY_CLASSIFICATION_LEVEL ( 'unclassified' ) ;
#186 = EDGE_LOOP ( 'NONE', ( #169, #193, #71, #73 ) ) ;
#187 = AXIS2_PLACEMENT_3D ( 'NONE', #132, #214, #198 ) ;
#188 = MANIFOLD_SOLID_BREP ( 'Pøidat vysunutím3', #235 ) ;
#189 = EDGE_LOOP ( 'NONE', ( #204, #143, #191, #79 ) ) ;
#190 = DATE_AND_TIME ( #34, #94 ) ;
#191 = ORIENTED_EDGE ( 'NONE', *, *, #159, .T. ) ;
#192 = CARTESIAN_POINT ( 'NONE',  ( 0.000000000000000000, 0.000000000000000000, 200.0000000000000000 ) ) ;
#193 = ORIENTED_EDGE ( 'NONE', *, *, #101, .F. ) ;
#194 = FACE_BOUND ( 'NONE', #157, .T. ) ;
#195 = APPROVAL_STATUS ( 'not_yet_approved' ) ;
#196 = APPROVAL_STATUS ( 'not_yet_approved' ) ;
#197 = PLANE ( 'NONE',  #69 ) ;
#198 = DIRECTION ( 'NONE',  ( 1.000000000000000000, 0.000000000000000000, 0.000000000000000000 ) ) ;
#199 = CARTESIAN_POINT ( 'NONE',  ( 4.250000000000000000, 5.204748896376250699E-16, 200.0000000000000000 ) ) ;
#200 = SHAPE_DEFINITION_REPRESENTATION ( #174, #88 ) ;
#201 = DIRECTION ( 'NONE',  ( 1.000000000000000000, 0.000000000000000000, 0.000000000000000000 ) ) ;
#202 = ADVANCED_FACE ( 'NONE', ( #50 ), #152, .T. ) ;
#203 = DIRECTION ( 'NONE',  ( 1.000000000000000000, 0.000000000000000000, 0.000000000000000000 ) ) ;
#204 = ORIENTED_EDGE ( 'NONE', *, *, #2, .F. ) ;
#205 = SECURITY_CLASSIFICATION ( '', '', #185 ) ;
#206 = DIRECTION ( 'NONE',  ( -0.000000000000000000, -0.000000000000000000, -1.000000000000000000 ) ) ;
#207 = ORIENTED_EDGE ( 'NONE', *, *, #159, .F. ) ;
#208 = DIRECTION ( 'NONE',  ( -1.000000000000000000, 0.000000000000000000, 0.000000000000000000 ) ) ;
#209 = ADVANCED_FACE ( 'NONE', ( #14 ), #124, .T. ) ;
#210 = DATE_TIME_ROLE ( 'creation_date' ) ;
#211 = VERTEX_POINT ( 'NONE', #231 ) ;
#212 = DIRECTION ( 'NONE',  ( -0.000000000000000000, -0.000000000000000000, -1.000000000000000000 ) ) ;
#213 = APPROVAL_ROLE ( '' ) ;
#214 = DIRECTION ( 'NONE',  ( 0.000000000000000000, 0.000000000000000000, 1.000000000000000000 ) ) ;
#215 = AXIS2_PLACEMENT_3D ( 'NONE', #234, #39, #114 ) ;
#216 = APPROVAL_DATE_TIME ( #48, #56 ) ;
#217 = AXIS2_PLACEMENT_3D ( 'NONE', #43, #175, #47 ) ;
#218 = CC_DESIGN_SECURITY_CLASSIFICATION ( #205, ( #161 ) ) ;
#219 = AXIS2_PLACEMENT_3D ( 'NONE', #67, #16, #153 ) ;
#220 = LOCAL_TIME ( 12, 38, 12.00000000000000000, #173 ) ;
#221 = ORIENTED_EDGE ( 'NONE', *, *, #240, .T. ) ;
#222 = DIRECTION ( 'NONE',  ( 0.000000000000000000, 0.000000000000000000, 1.000000000000000000 ) ) ;
#223 = LINE ( 'NONE', #146, #138 ) ;
#224 = ORIENTED_EDGE ( 'NONE', *, *, #112, .T. ) ;
#225 = FACE_OUTER_BOUND ( 'NONE', #252, .T. ) ;
#226 = DIRECTION ( 'NONE',  ( 1.000000000000000000, 0.000000000000000000, -0.000000000000000000 ) ) ;
#227 = CYLINDRICAL_SURFACE ( 'NONE', #133, 7.000000000000000000 ) ;
#228 = CARTESIAN_POINT ( 'NONE',  ( 7.000000000000000000, 8.572527594031473190E-16, 0.000000000000000000 ) ) ;
#229 = CARTESIAN_POINT ( 'NONE',  ( 0.000000000000000000, 0.000000000000000000, 5.000000000000000000 ) ) ;
#230 = CC_DESIGN_DATE_AND_TIME_ASSIGNMENT ( #1, #130, ( #205 ) ) ;
#231 = CARTESIAN_POINT ( 'NONE',  ( 4.250000000000000000, 5.204748896376250699E-16, 5.000000000000000000 ) ) ;
#232 = CALENDAR_DATE ( 2023, 12, 2 ) ;
#233 = VERTEX_POINT ( 'NONE', #13 ) ;
#234 = CARTESIAN_POINT ( 'NONE',  ( 0.000000000000000000, 0.000000000000000000, 5.000000000000000000 ) ) ;
#235 = CLOSED_SHELL ( 'NONE', ( #202, #92, #118, #129, #20, #41, #209 ) ) ;
#236 = MECHANICAL_CONTEXT ( 'NONE', #80, 'mechanical' ) ;
#237 = UNCERTAINTY_MEASURE_WITH_UNIT (LENGTH_MEASURE( 1.000000000000000082E-05 ), #110, 'distance_accuracy_value', 'NONE');
#238 = CC_DESIGN_APPROVAL ( #51, ( #81 ) ) ;
#239 = COORDINATED_UNIVERSAL_TIME_OFFSET ( 1, 0, .AHEAD. ) ;
#240 = EDGE_CURVE ( 'NONE', #233, #244, #128, .T. ) ;
#241 = EDGE_CURVE ( 'NONE', #168, #6, #29, .T. ) ;
#242 = PLANE ( 'NONE',  #68 ) ;
#243 = PERSON_AND_ORGANIZATION_ROLE ( 'creator' ) ;
#244 = VERTEX_POINT ( 'NONE', #228 ) ;
#245 = CARTESIAN_POINT ( 'NONE',  ( -7.000000000000000000, 0.000000000000000000, 5.000000000000000000 ) ) ;
#246 = CARTESIAN_POINT ( 'NONE',  ( 0.000000000000000000, 0.000000000000000000, 200.0000000000000000 ) ) ;
#247 = CIRCLE ( 'NONE', #61, 4.250000000000000000 ) ;
#248 = COORDINATED_UNIVERSAL_TIME_OFFSET ( 1, 0, .AHEAD. ) ;
#249 = AXIS2_PLACEMENT_3D ( 'NONE', #246, #222, #226 ) ;
#250 = CYLINDRICAL_SURFACE ( 'NONE', #215, 7.000000000000000000 ) ;
#251 = PERSON_AND_ORGANIZATION ( #77, #25 ) ;
#252 = EDGE_LOOP ( 'NONE', ( #8, #31, #125, #221 ) ) ;
#253 = CC_DESIGN_PERSON_AND_ORGANIZATION_ASSIGNMENT ( #85, #163, ( #161 ) ) ;
#254 = APPLICATION_PROTOCOL_DEFINITION ( 'international standard', 'config_control_design', 1994, #70 ) ;
#255 = DIRECTION ( 'NONE',  ( 1.000000000000000000, 0.000000000000000000, -0.000000000000000000 ) ) ;
ENDSEC;
END-ISO-10303-21;
