ISO-10303-21;
HEADER;
FILE_DESCRIPTION (( 'STEP AP203' ),
    '1' );
FILE_NAME ('0257.STEP',
    '2023-02-12T12:53:09',
    ( '' ),
    ( '' ),
    'SwSTEP 2.0',
    'SolidWorks 2019',
    '' );
FILE_SCHEMA (( 'CONFIG_CONTROL_DESIGN' ));
ENDSEC;

DATA;
#1 = CARTESIAN_POINT ( 'NONE',  ( 0.000000000000000000, 0.000000000000000000, 160.0000000000000000 ) ) ;
#2 = DIRECTION ( 'NONE',  ( 0.000000000000000000, 0.000000000000000000, 1.000000000000000000 ) ) ;
#3 = PERSON_AND_ORGANIZATION_ROLE ( 'design_owner' ) ;
#4 = DIRECTION ( 'NONE',  ( -1.000000000000000000, 0.000000000000000000, 0.000000000000000000 ) ) ;
#5 = DIRECTION ( 'NONE',  ( 0.000000000000000000, 0.000000000000000000, 1.000000000000000000 ) ) ;
#6 = EDGE_LOOP ( 'NONE', ( #100, #249 ) ) ;
#7 = CARTESIAN_POINT ( 'NONE',  ( 0.000000000000000000, 0.000000000000000000, 160.0000000000000000 ) ) ;
#8 = DATE_TIME_ROLE ( 'classification_date' ) ;
#9 = ORIENTED_EDGE ( 'NONE', *, *, #32, .T. ) ;
#10 = CC_DESIGN_PERSON_AND_ORGANIZATION_ASSIGNMENT ( #24, #255, ( #64 ) ) ;
#11 = CARTESIAN_POINT ( 'NONE',  ( 1.000000000000000000, 1.224646799147353207E-16, 2.000000000000000000 ) ) ;
#12 = AXIS2_PLACEMENT_3D ( 'NONE', #59, #132, #254 ) ;
#13 = APPROVAL_STATUS ( 'not_yet_approved' ) ;
#14 = EDGE_LOOP ( 'NONE', ( #215, #171 ) ) ;
#15 = VERTEX_POINT ( 'NONE', #151 ) ;
#16 = CARTESIAN_POINT ( 'NONE',  ( 0.000000000000000000, 0.000000000000000000, 2.000000000000000000 ) ) ;
#17 = ADVANCED_FACE ( 'NONE', ( #251 ), #175, .F. ) ;
#18 = AXIS2_PLACEMENT_3D ( 'NONE', #57, #227, #192 ) ;
#19 = COORDINATED_UNIVERSAL_TIME_OFFSET ( 1, 0, .AHEAD. ) ;
#20 = ORGANIZATION ( 'NEURÈENÝ', 'NEURÈENÝ', '' ) ;
#21 = APPROVAL_DATE_TIME ( #233, #174 ) ;
#22 = CIRCLE ( 'NONE', #161, 1.000000000000000000 ) ;
#23 = EDGE_LOOP ( 'NONE', ( #129, #193, #166, #9 ) ) ;
#24 = PERSON_AND_ORGANIZATION ( #127, #20 ) ;
#25 = DIRECTION ( 'NONE',  ( -1.000000000000000000, 0.000000000000000000, 0.000000000000000000 ) ) ;
#26 = CARTESIAN_POINT ( 'NONE',  ( 1.000000000000000000, 1.224646799147353207E-16, 160.0000000000000000 ) ) ;
#27 = EDGE_LOOP ( 'NONE', ( #131, #244, #136, #73 ) ) ;
#28 = DIRECTION ( 'NONE',  ( -1.000000000000000000, 0.000000000000000000, 0.000000000000000000 ) ) ;
#29 = FACE_OUTER_BOUND ( 'NONE', #78, .T. ) ;
#30 = CARTESIAN_POINT ( 'NONE',  ( 0.000000000000000000, 0.000000000000000000, 2.000000000000000000 ) ) ;
#31 = CC_DESIGN_PERSON_AND_ORGANIZATION_ASSIGNMENT ( #86, #139, ( #115 ) ) ;
#32 = EDGE_CURVE ( 'NONE', #201, #89, #150, .T. ) ;
#33 = PLANE ( 'NONE',  #18 ) ;
#34 = ORIENTED_EDGE ( 'NONE', *, *, #118, .T. ) ;
#35 = CC_DESIGN_DATE_AND_TIME_ASSIGNMENT ( #53, #74, ( #115 ) ) ;
#36 =( NAMED_UNIT ( * ) PLANE_ANGLE_UNIT ( ) SI_UNIT ( $, .RADIAN. ) );
#37 = ADVANCED_FACE ( 'NONE', ( #231 ), #62, .T. ) ;
#38 = APPLICATION_PROTOCOL_DEFINITION ( 'international standard', 'config_control_design', 1994, #176 ) ;
#39 = ADVANCED_FACE ( 'NONE', ( #29 ), #181, .T. ) ;
#40 = AXIS2_PLACEMENT_3D ( 'NONE', #16, #123, #209 ) ;
#41 = AXIS2_PLACEMENT_3D ( 'NONE', #243, #5, #87 ) ;
#42 = PERSON_AND_ORGANIZATION ( #127, #20 ) ;
#43 = CARTESIAN_POINT ( 'NONE',  ( 0.000000000000000000, 0.000000000000000000, 160.0000000000000000 ) ) ;
#44 = ORIENTED_EDGE ( 'NONE', *, *, #178, .T. ) ;
#45 = CC_DESIGN_APPROVAL ( #124, ( #230 ) ) ;
#46 = APPROVAL_ROLE ( '' ) ;
#47 = CC_DESIGN_PERSON_AND_ORGANIZATION_ASSIGNMENT ( #116, #198, ( #230 ) ) ;
#48 = DIRECTION ( 'NONE',  ( -1.000000000000000000, 0.000000000000000000, 0.000000000000000000 ) ) ;
#49 = CALENDAR_DATE ( 2023, 12, 2 ) ;
#50 = AXIS2_PLACEMENT_3D ( 'NONE', #103, #2, #121 ) ;
#51 = CARTESIAN_POINT ( 'NONE',  ( 0.000000000000000000, 0.000000000000000000, 2.000000000000000000 ) ) ;
#52 = MANIFOLD_SOLID_BREP ( 'Pøidat vysunutím3', #119 ) ;
#53 = DATE_AND_TIME ( #189, #60 ) ;
#54 = FACE_OUTER_BOUND ( 'NONE', #23, .T. ) ;
#55 = DIRECTION ( 'NONE',  ( 0.000000000000000000, 0.000000000000000000, 1.000000000000000000 ) ) ;
#56 = PRODUCT_DEFINITION_SHAPE ( 'NONE', 'NONE',  #115 ) ;
#57 = CARTESIAN_POINT ( 'NONE',  ( 0.000000000000000000, 0.000000000000000000, 160.0000000000000000 ) ) ;
#58 = CARTESIAN_POINT ( 'NONE',  ( 0.000000000000000000, 0.000000000000000000, 0.000000000000000000 ) ) ;
#59 = CARTESIAN_POINT ( 'NONE',  ( 0.000000000000000000, 0.000000000000000000, 0.000000000000000000 ) ) ;
#60 = LOCAL_TIME ( 13, 53, 9.000000000000000000, #167 ) ;
#61 = COORDINATED_UNIVERSAL_TIME_OFFSET ( 1, 0, .AHEAD. ) ;
#62 = CYLINDRICAL_SURFACE ( 'NONE', #112, 1.000000000000000000 ) ;
#63 = APPROVAL_ROLE ( '' ) ;
#64 = PRODUCT_DEFINITION_FORMATION_WITH_SPECIFIED_SOURCE ( 'LIBOVOLNÝ', '', #133, .NOT_KNOWN. ) ;
#65 = DATE_AND_TIME ( #158, #99 ) ;
#66 = APPROVAL_STATUS ( 'not_yet_approved' ) ;
#67 = PERSON_AND_ORGANIZATION ( #127, #20 ) ;
#68 = CYLINDRICAL_SURFACE ( 'NONE', #212, 1.000000000000000000 ) ;
#69 = CARTESIAN_POINT ( 'NONE',  ( 0.000000000000000000, 0.000000000000000000, 160.0000000000000000 ) ) ;
#70 = EDGE_CURVE ( 'NONE', #93, #201, #236, .T. ) ;
#71 = DIRECTION ( 'NONE',  ( 0.000000000000000000, 0.000000000000000000, 1.000000000000000000 ) ) ;
#72 = PERSON_AND_ORGANIZATION ( #127, #20 ) ;
#73 = ORIENTED_EDGE ( 'NONE', *, *, #122, .F. ) ;
#74 = DATE_TIME_ROLE ( 'creation_date' ) ;
#75 = AXIS2_PLACEMENT_3D ( 'NONE', #30, #71, #163 ) ;
#76 = EDGE_LOOP ( 'NONE', ( #196, #106 ) ) ;
#77 = DIRECTION ( 'NONE',  ( 1.000000000000000000, 0.000000000000000000, 0.000000000000000000 ) ) ;
#78 = EDGE_LOOP ( 'NONE', ( #228, #145, #224, #97 ) ) ;
#79 = CARTESIAN_POINT ( 'NONE',  ( -2.000000000000000000, 0.000000000000000000, 0.000000000000000000 ) ) ;
#80 = AXIS2_PLACEMENT_3D ( 'NONE', #58, #180, #186 ) ;
#81 = EDGE_CURVE ( 'NONE', #213, #218, #162, .T. ) ;
#82 = VECTOR ( 'NONE', #207, 1000.000000000000000 ) ;
#83 = FACE_BOUND ( 'NONE', #6, .T. ) ;
#84 = APPROVAL_STATUS ( 'not_yet_approved' ) ;
#85 = CARTESIAN_POINT ( 'NONE',  ( 0.000000000000000000, 0.000000000000000000, 2.000000000000000000 ) ) ;
#86 = PERSON_AND_ORGANIZATION ( #127, #20 ) ;
#87 = DIRECTION ( 'NONE',  ( 1.000000000000000000, 0.000000000000000000, 0.000000000000000000 ) ) ;
#88 = EDGE_CURVE ( 'NONE', #89, #201, #221, .T. ) ;
#89 = VERTEX_POINT ( 'NONE', #238 ) ;
#90 = CC_DESIGN_APPROVAL ( #140, ( #115 ) ) ;
#91 = ORIENTED_EDGE ( 'NONE', *, *, #122, .T. ) ;
#92 = DIRECTION ( 'NONE',  ( -0.000000000000000000, -0.000000000000000000, -1.000000000000000000 ) ) ;
#93 = VERTEX_POINT ( 'NONE', #159 ) ;
#94 = DIRECTION ( 'NONE',  ( 1.000000000000000000, 0.000000000000000000, 0.000000000000000000 ) ) ;
#95 = AXIS2_PLACEMENT_3D ( 'NONE', #188, #110, #164 ) ;
#96 = CC_DESIGN_APPROVAL ( #174, ( #64 ) ) ;
#97 = ORIENTED_EDGE ( 'NONE', *, *, #70, .F. ) ;
#98 = DIRECTION ( 'NONE',  ( -0.000000000000000000, -0.000000000000000000, -1.000000000000000000 ) ) ;
#99 = LOCAL_TIME ( 13, 53, 9.000000000000000000, #202 ) ;
#100 = ORIENTED_EDGE ( 'NONE', *, *, #118, .F. ) ;
#101 = DIRECTION ( 'NONE',  ( -0.000000000000000000, -0.000000000000000000, -1.000000000000000000 ) ) ;
#102 = CALENDAR_DATE ( 2023, 12, 2 ) ;
#103 = CARTESIAN_POINT ( 'NONE',  ( 0.000000000000000000, 0.000000000000000000, 0.000000000000000000 ) ) ;
#104 = APPROVAL_PERSON_ORGANIZATION ( #67, #140, #183 ) ;
#105 = DIRECTION ( 'NONE',  ( -0.000000000000000000, -0.000000000000000000, -1.000000000000000000 ) ) ;
#106 = ORIENTED_EDGE ( 'NONE', *, *, #170, .T. ) ;
#107 = ADVANCED_FACE ( 'NONE', ( #141 ), #68, .T. ) ;
#108 = LOCAL_TIME ( 13, 53, 9.000000000000000000, #19 ) ;
#109 =( NAMED_UNIT ( * ) SI_UNIT ( $, .STERADIAN. ) SOLID_ANGLE_UNIT ( ) );
#110 = DIRECTION ( 'NONE',  ( 0.000000000000000000, 0.000000000000000000, 1.000000000000000000 ) ) ;
#111 = CIRCLE ( 'NONE', #40, 2.000000000000000000 ) ;
#112 = AXIS2_PLACEMENT_3D ( 'NONE', #43, #101, #25 ) ;
#113 = ORIENTED_EDGE ( 'NONE', *, *, #81, .F. ) ;
#114 = CARTESIAN_POINT ( 'NONE',  ( 0.000000000000000000, 0.000000000000000000, 0.000000000000000000 ) ) ;
#115 = PRODUCT_DEFINITION ( 'NEZNÁMÝ', '', #64, #168 ) ;
#116 = PERSON_AND_ORGANIZATION ( #127, #20 ) ;
#117 = APPLICATION_CONTEXT ( 'configuration controlled 3d designs of mechanical parts and assemblies' ) ;
#118 = EDGE_CURVE ( 'NONE', #165, #218, #172, .T. ) ;
#119 = CLOSED_SHELL ( 'NONE', ( #107, #39, #194, #135, #17, #37, #155 ) ) ;
#120 = ADVANCED_BREP_SHAPE_REPRESENTATION ( '0257', ( #52, #80 ), #235 ) ;
#121 = DIRECTION ( 'NONE',  ( 1.000000000000000000, 0.000000000000000000, 0.000000000000000000 ) ) ;
#122 = EDGE_CURVE ( 'NONE', #15, #165, #134, .T. ) ;
#123 = DIRECTION ( 'NONE',  ( 0.000000000000000000, 0.000000000000000000, 1.000000000000000000 ) ) ;
#124 = APPROVAL ( #66, 'NEURÈENÝ' ) ;
#125 = LINE ( 'NONE', #126, #177 ) ;
#126 = CARTESIAN_POINT ( 'NONE',  ( 2.000000000000000000, 2.449293598294706414E-16, 2.000000000000000000 ) ) ;
#127 = PERSON ( 'NEURÈENÝ', 'NEURÈENÝ', 'NEURÈENÝ', ('NEURÈENÝ'), ('NEURÈENÝ'), ('NEURÈENÝ') ) ;
#128 = CARTESIAN_POINT ( 'NONE',  ( 1.000000000000000000, 1.224646799147353207E-16, 160.0000000000000000 ) ) ;
#129 = ORIENTED_EDGE ( 'NONE', *, *, #216, .F. ) ;
#130 = DIRECTION ( 'NONE',  ( 0.000000000000000000, 0.000000000000000000, 1.000000000000000000 ) ) ;
#131 = ORIENTED_EDGE ( 'NONE', *, *, #178, .F. ) ;
#132 = DIRECTION ( 'NONE',  ( 0.000000000000000000, 0.000000000000000000, 1.000000000000000000 ) ) ;
#133 = PRODUCT ( '0257', '0257', '', ( #240 ) ) ;
#134 = LINE ( 'NONE', #138, #169 ) ;
#135 = ADVANCED_FACE ( 'NONE', ( #83, #219 ), #242, .T. ) ;
#136 = ORIENTED_EDGE ( 'NONE', *, *, #149, .T. ) ;
#137 = APPROVAL_DATE_TIME ( #65, #140 ) ;
#138 = CARTESIAN_POINT ( 'NONE',  ( -1.000000000000000000, 0.000000000000000000, 160.0000000000000000 ) ) ;
#139 = PERSON_AND_ORGANIZATION_ROLE ( 'creator' ) ;
#140 = APPROVAL ( #84, 'NEURÈENÝ' ) ;
#141 = FACE_OUTER_BOUND ( 'NONE', #27, .T. ) ;
#142 = EDGE_LOOP ( 'NONE', ( #113, #147, #91, #34 ) ) ;
#143 = DIRECTION ( 'NONE',  ( 1.000000000000000000, 0.000000000000000000, 0.000000000000000000 ) ) ;
#144 = EDGE_CURVE ( 'NONE', #15, #213, #22, .T. ) ;
#145 = ORIENTED_EDGE ( 'NONE', *, *, #216, .T. ) ;
#146 = CIRCLE ( 'NONE', #229, 2.000000000000000000 ) ;
#147 = ORIENTED_EDGE ( 'NONE', *, *, #144, .F. ) ;
#148 = FACE_OUTER_BOUND ( 'NONE', #247, .T. ) ;
#149 = EDGE_CURVE ( 'NONE', #218, #165, #234, .T. ) ;
#150 = CIRCLE ( 'NONE', #253, 2.000000000000000000 ) ;
#151 = CARTESIAN_POINT ( 'NONE',  ( -1.000000000000000000, 0.000000000000000000, 160.0000000000000000 ) ) ;
#152 = CC_DESIGN_DATE_AND_TIME_ASSIGNMENT ( #220, #8, ( #230 ) ) ;
#153 = PERSON_AND_ORGANIZATION ( #127, #20 ) ;
#154 = AXIS2_PLACEMENT_3D ( 'NONE', #85, #205, #28 ) ;
#155 = ADVANCED_FACE ( 'NONE', ( #148 ), #33, .T. ) ;
#156 = DIRECTION ( 'NONE',  ( 0.000000000000000000, 0.000000000000000000, 1.000000000000000000 ) ) ;
#157 = DIRECTION ( 'NONE',  ( -0.000000000000000000, -0.000000000000000000, -1.000000000000000000 ) ) ;
#158 = CALENDAR_DATE ( 2023, 12, 2 ) ;
#159 = CARTESIAN_POINT ( 'NONE',  ( -2.000000000000000000, 0.000000000000000000, 2.000000000000000000 ) ) ;
#160 = APPROVAL_DATE_TIME ( #182, #124 ) ;
#161 = AXIS2_PLACEMENT_3D ( 'NONE', #1, #156, #222 ) ;
#162 = LINE ( 'NONE', #26, #82 ) ;
#163 = DIRECTION ( 'NONE',  ( 1.000000000000000000, 0.000000000000000000, -0.000000000000000000 ) ) ;
#164 = DIRECTION ( 'NONE',  ( 1.000000000000000000, 0.000000000000000000, 0.000000000000000000 ) ) ;
#165 = VERTEX_POINT ( 'NONE', #246 ) ;
#166 = ORIENTED_EDGE ( 'NONE', *, *, #70, .T. ) ;
#167 = COORDINATED_UNIVERSAL_TIME_OFFSET ( 1, 0, .AHEAD. ) ;
#168 = DESIGN_CONTEXT ( 'detailed design', #117, 'design' ) ;
#169 = VECTOR ( 'NONE', #98, 1000.000000000000000 ) ;
#170 = EDGE_CURVE ( 'NONE', #225, #93, #111, .T. ) ;
#171 = ORIENTED_EDGE ( 'NONE', *, *, #88, .F. ) ;
#172 = CIRCLE ( 'NONE', #41, 1.000000000000000000 ) ;
#173 = PRODUCT_RELATED_PRODUCT_CATEGORY ( 'detail', '', ( #133 ) ) ;
#174 = APPROVAL ( #13, 'NEURÈENÝ' ) ;
#175 = PLANE ( 'NONE',  #12 ) ;
#176 = APPLICATION_CONTEXT ( 'configuration controlled 3d designs of mechanical parts and assemblies' ) ;
#177 = VECTOR ( 'NONE', #105, 1000.000000000000000 ) ;
#178 = EDGE_CURVE ( 'NONE', #213, #15, #199, .T. ) ;
#179 = CC_DESIGN_PERSON_AND_ORGANIZATION_ASSIGNMENT ( #153, #3, ( #133 ) ) ;
#180 = DIRECTION ( 'NONE',  ( 0.000000000000000000, 0.000000000000000000, 1.000000000000000000 ) ) ;
#181 = CYLINDRICAL_SURFACE ( 'NONE', #154, 2.000000000000000000 ) ;
#182 = DATE_AND_TIME ( #102, #248 ) ;
#183 = APPROVAL_ROLE ( '' ) ;
#184 = DIRECTION ( 'NONE',  ( -0.000000000000000000, -0.000000000000000000, -1.000000000000000000 ) ) ;
#185 = APPROVAL_PERSON_ORGANIZATION ( #72, #124, #46 ) ;
#186 = DIRECTION ( 'NONE',  ( 1.000000000000000000, 0.000000000000000000, 0.000000000000000000 ) ) ;
#187 = CC_DESIGN_PERSON_AND_ORGANIZATION_ASSIGNMENT ( #42, #206, ( #64 ) ) ;
#188 = CARTESIAN_POINT ( 'NONE',  ( 0.000000000000000000, 0.000000000000000000, 2.000000000000000000 ) ) ;
#189 = CALENDAR_DATE ( 2023, 12, 2 ) ;
#190 = CYLINDRICAL_SURFACE ( 'NONE', #214, 2.000000000000000000 ) ;
#191 = CC_DESIGN_SECURITY_CLASSIFICATION ( #230, ( #64 ) ) ;
#192 = DIRECTION ( 'NONE',  ( 1.000000000000000000, 0.000000000000000000, -0.000000000000000000 ) ) ;
#193 = ORIENTED_EDGE ( 'NONE', *, *, #223, .F. ) ;
#194 = ADVANCED_FACE ( 'NONE', ( #54 ), #190, .T. ) ;
#195 = ORIENTED_EDGE ( 'NONE', *, *, #144, .T. ) ;
#196 = ORIENTED_EDGE ( 'NONE', *, *, #223, .T. ) ;
#197 = DIRECTION ( 'NONE',  ( 0.000000000000000000, 0.000000000000000000, 1.000000000000000000 ) ) ;
#198 = PERSON_AND_ORGANIZATION_ROLE ( 'classification_officer' ) ;
#199 = CIRCLE ( 'NONE', #226, 1.000000000000000000 ) ;
#200 = APPROVAL_PERSON_ORGANIZATION ( #210, #174, #63 ) ;
#201 = VERTEX_POINT ( 'NONE', #79 ) ;
#202 = COORDINATED_UNIVERSAL_TIME_OFFSET ( 1, 0, .AHEAD. ) ;
#203 = LOCAL_TIME ( 13, 53, 9.000000000000000000, #61 ) ;
#204 = CARTESIAN_POINT ( 'NONE',  ( -2.000000000000000000, 0.000000000000000000, 2.000000000000000000 ) ) ;
#205 = DIRECTION ( 'NONE',  ( -0.000000000000000000, -0.000000000000000000, -1.000000000000000000 ) ) ;
#206 = PERSON_AND_ORGANIZATION_ROLE ( 'creator' ) ;
#207 = DIRECTION ( 'NONE',  ( -0.000000000000000000, -0.000000000000000000, -1.000000000000000000 ) ) ;
#208 = CARTESIAN_POINT ( 'NONE',  ( 2.000000000000000000, 2.449293598294706414E-16, 2.000000000000000000 ) ) ;
#209 = DIRECTION ( 'NONE',  ( 1.000000000000000000, 0.000000000000000000, 0.000000000000000000 ) ) ;
#210 = PERSON_AND_ORGANIZATION ( #127, #20 ) ;
#211 =( LENGTH_UNIT ( ) NAMED_UNIT ( * ) SI_UNIT ( .MILLI., .METRE. ) );
#212 = AXIS2_PLACEMENT_3D ( 'NONE', #69, #184, #4 ) ;
#213 = VERTEX_POINT ( 'NONE', #128 ) ;
#214 = AXIS2_PLACEMENT_3D ( 'NONE', #51, #92, #48 ) ;
#215 = ORIENTED_EDGE ( 'NONE', *, *, #32, .F. ) ;
#216 = EDGE_CURVE ( 'NONE', #225, #89, #125, .T. ) ;
#217 = VECTOR ( 'NONE', #157, 1000.000000000000000 ) ;
#218 = VERTEX_POINT ( 'NONE', #11 ) ;
#219 = FACE_OUTER_BOUND ( 'NONE', #76, .T. ) ;
#220 = DATE_AND_TIME ( #49, #108 ) ;
#221 = CIRCLE ( 'NONE', #50, 2.000000000000000000 ) ;
#222 = DIRECTION ( 'NONE',  ( 1.000000000000000000, 0.000000000000000000, 0.000000000000000000 ) ) ;
#223 = EDGE_CURVE ( 'NONE', #93, #225, #146, .T. ) ;
#224 = ORIENTED_EDGE ( 'NONE', *, *, #88, .T. ) ;
#225 = VERTEX_POINT ( 'NONE', #208 ) ;
#226 = AXIS2_PLACEMENT_3D ( 'NONE', #7, #55, #143 ) ;
#227 = DIRECTION ( 'NONE',  ( 0.000000000000000000, 0.000000000000000000, 1.000000000000000000 ) ) ;
#228 = ORIENTED_EDGE ( 'NONE', *, *, #170, .F. ) ;
#229 = AXIS2_PLACEMENT_3D ( 'NONE', #245, #130, #77 ) ;
#230 = SECURITY_CLASSIFICATION ( '', '', #252 ) ;
#231 = FACE_OUTER_BOUND ( 'NONE', #142, .T. ) ;
#232 = CALENDAR_DATE ( 2023, 12, 2 ) ;
#233 = DATE_AND_TIME ( #232, #203 ) ;
#234 = CIRCLE ( 'NONE', #95, 1.000000000000000000 ) ;
#235 =( GEOMETRIC_REPRESENTATION_CONTEXT ( 3 ) GLOBAL_UNCERTAINTY_ASSIGNED_CONTEXT ( ( #250 ) ) GLOBAL_UNIT_ASSIGNED_CONTEXT ( ( #211, #36, #109 ) ) REPRESENTATION_CONTEXT ( 'NONE', 'WORKASPACE' ) );
#236 = LINE ( 'NONE', #204, #217 ) ;
#237 = APPLICATION_PROTOCOL_DEFINITION ( 'international standard', 'config_control_design', 1994, #117 ) ;
#238 = CARTESIAN_POINT ( 'NONE',  ( 2.000000000000000000, 2.449293598294706414E-16, 0.000000000000000000 ) ) ;
#239 = COORDINATED_UNIVERSAL_TIME_OFFSET ( 1, 0, .AHEAD. ) ;
#240 = MECHANICAL_CONTEXT ( 'NONE', #176, 'mechanical' ) ;
#241 = SHAPE_DEFINITION_REPRESENTATION ( #56, #120 ) ;
#242 = PLANE ( 'NONE',  #75 ) ;
#243 = CARTESIAN_POINT ( 'NONE',  ( 0.000000000000000000, 0.000000000000000000, 2.000000000000000000 ) ) ;
#244 = ORIENTED_EDGE ( 'NONE', *, *, #81, .T. ) ;
#245 = CARTESIAN_POINT ( 'NONE',  ( 0.000000000000000000, 0.000000000000000000, 2.000000000000000000 ) ) ;
#246 = CARTESIAN_POINT ( 'NONE',  ( -1.000000000000000000, 0.000000000000000000, 2.000000000000000000 ) ) ;
#247 = EDGE_LOOP ( 'NONE', ( #195, #44 ) ) ;
#248 = LOCAL_TIME ( 13, 53, 9.000000000000000000, #239 ) ;
#249 = ORIENTED_EDGE ( 'NONE', *, *, #149, .F. ) ;
#250 = UNCERTAINTY_MEASURE_WITH_UNIT (LENGTH_MEASURE( 1.000000000000000082E-05 ), #211, 'distance_accuracy_value', 'NONE');
#251 = FACE_OUTER_BOUND ( 'NONE', #14, .T. ) ;
#252 = SECURITY_CLASSIFICATION_LEVEL ( 'unclassified' ) ;
#253 = AXIS2_PLACEMENT_3D ( 'NONE', #114, #197, #94 ) ;
#254 = DIRECTION ( 'NONE',  ( 1.000000000000000000, 0.000000000000000000, -0.000000000000000000 ) ) ;
#255 = PERSON_AND_ORGANIZATION_ROLE ( 'design_supplier' ) ;
ENDSEC;
END-ISO-10303-21;
