ISO-10303-21;
HEADER;
FILE_DESCRIPTION (( 'STEP AP203' ),
    '1' );
FILE_NAME ('1e14.STEP',
    '2023-02-12T10:06:11',
    ( '' ),
    ( '' ),
    'SwSTEP 2.0',
    'SolidWorks 2019',
    '' );
FILE_SCHEMA (( 'CONFIG_CONTROL_DESIGN' ));
ENDSEC;

DATA;
#1 = CARTESIAN_POINT ( 'NONE',  ( 0.000000000000000000, 0.000000000000000000, 800.0000000000000000 ) ) ;
#2 = CYLINDRICAL_SURFACE ( 'NONE', #242, 20.00000000000000000 ) ;
#3 = CARTESIAN_POINT ( 'NONE',  ( 16.00000000000000000, 1.959434878635764737E-15, 800.0000000000000000 ) ) ;
#4 = CARTESIAN_POINT ( 'NONE',  ( 0.000000000000000000, 0.000000000000000000, 10.00000000000000000 ) ) ;
#5 = ADVANCED_FACE ( 'NONE', ( #73 ), #213, .T. ) ;
#6 = DIRECTION ( 'NONE',  ( -0.000000000000000000, -0.000000000000000000, -1.000000000000000000 ) ) ;
#7 = APPROVAL_PERSON_ORGANIZATION ( #27, #76, #149 ) ;
#8 = CARTESIAN_POINT ( 'NONE',  ( 0.000000000000000000, 0.000000000000000000, 0.000000000000000000 ) ) ;
#9 = DIRECTION ( 'NONE',  ( 0.000000000000000000, 0.000000000000000000, 1.000000000000000000 ) ) ;
#10 = AXIS2_PLACEMENT_3D ( 'NONE', #44, #144, #78 ) ;
#11 = PERSON_AND_ORGANIZATION ( #13, #124 ) ;
#12 = LOCAL_TIME ( 11, 6, 11.00000000000000000, #25 ) ;
#13 = PERSON ( 'NEURÈENÝ', 'NEURÈENÝ', 'NEURÈENÝ', ('NEURÈENÝ'), ('NEURÈENÝ'), ('NEURÈENÝ') ) ;
#14 = CC_DESIGN_PERSON_AND_ORGANIZATION_ASSIGNMENT ( #228, #29, ( #163 ) ) ;
#15 = VERTEX_POINT ( 'NONE', #125 ) ;
#16 = VERTEX_POINT ( 'NONE', #42 ) ;
#17 = EDGE_CURVE ( 'NONE', #252, #114, #197, .T. ) ;
#18 = EDGE_LOOP ( 'NONE', ( #232, #176, #216, #190 ) ) ;
#19 = CIRCLE ( 'NONE', #75, 20.00000000000000000 ) ;
#20 = CARTESIAN_POINT ( 'NONE',  ( 0.000000000000000000, 0.000000000000000000, 10.00000000000000000 ) ) ;
#21 = CARTESIAN_POINT ( 'NONE',  ( 0.000000000000000000, 0.000000000000000000, 800.0000000000000000 ) ) ;
#22 = DIRECTION ( 'NONE',  ( 1.000000000000000000, 0.000000000000000000, 0.000000000000000000 ) ) ;
#23 = CARTESIAN_POINT ( 'NONE',  ( 0.000000000000000000, 0.000000000000000000, 10.00000000000000000 ) ) ;
#24 = DIRECTION ( 'NONE',  ( 1.000000000000000000, 0.000000000000000000, 0.000000000000000000 ) ) ;
#25 = COORDINATED_UNIVERSAL_TIME_OFFSET ( 1, 0, .AHEAD. ) ;
#26 = DATE_AND_TIME ( #205, #64 ) ;
#27 = PERSON_AND_ORGANIZATION ( #13, #124 ) ;
#28 = LOCAL_TIME ( 11, 6, 11.00000000000000000, #86 ) ;
#29 = PERSON_AND_ORGANIZATION_ROLE ( 'design_owner' ) ;
#30 = VERTEX_POINT ( 'NONE', #106 ) ;
#31 = ORIENTED_EDGE ( 'NONE', *, *, #69, .T. ) ;
#32 = VERTEX_POINT ( 'NONE', #141 ) ;
#33 = CC_DESIGN_APPROVAL ( #161, ( #49 ) ) ;
#34 = DATE_TIME_ROLE ( 'classification_date' ) ;
#35 = ORIENTED_EDGE ( 'NONE', *, *, #37, .F. ) ;
#36 = CARTESIAN_POINT ( 'NONE',  ( -20.00000000000000000, 0.000000000000000000, 0.000000000000000000 ) ) ;
#37 = EDGE_CURVE ( 'NONE', #114, #97, #51, .T. ) ;
#38 = DIRECTION ( 'NONE',  ( -1.000000000000000000, 0.000000000000000000, 0.000000000000000000 ) ) ;
#39 = DIRECTION ( 'NONE',  ( 1.000000000000000000, 0.000000000000000000, -0.000000000000000000 ) ) ;
#40 = CC_DESIGN_PERSON_AND_ORGANIZATION_ASSIGNMENT ( #11, #89, ( #189 ) ) ;
#41 = AXIS2_PLACEMENT_3D ( 'NONE', #21, #118, #38 ) ;
#42 = CARTESIAN_POINT ( 'NONE',  ( -16.00000000000000000, 0.000000000000000000, 10.00000000000000000 ) ) ;
#43 = CC_DESIGN_APPROVAL ( #171, ( #237 ) ) ;
#44 = CARTESIAN_POINT ( 'NONE',  ( 0.000000000000000000, 0.000000000000000000, 0.000000000000000000 ) ) ;
#45 = CC_DESIGN_DATE_AND_TIME_ASSIGNMENT ( #214, #34, ( #237 ) ) ;
#46 = CIRCLE ( 'NONE', #134, 20.00000000000000000 ) ;
#47 = DATE_TIME_ROLE ( 'creation_date' ) ;
#48 =( LENGTH_UNIT ( ) NAMED_UNIT ( * ) SI_UNIT ( .MILLI., .METRE. ) );
#49 = PRODUCT_DEFINITION ( 'NEZNÁMÝ', '', #189, #230 ) ;
#50 = CARTESIAN_POINT ( 'NONE',  ( 0.000000000000000000, 0.000000000000000000, 800.0000000000000000 ) ) ;
#51 = CIRCLE ( 'NONE', #10, 20.00000000000000000 ) ;
#52 = PERSON_AND_ORGANIZATION_ROLE ( 'classification_officer' ) ;
#53 = EDGE_LOOP ( 'NONE', ( #132, #56 ) ) ;
#54 = CIRCLE ( 'NONE', #254, 16.00000000000000000 ) ;
#55 = APPROVAL_ROLE ( '' ) ;
#56 = ORIENTED_EDGE ( 'NONE', *, *, #133, .T. ) ;
#57 = CC_DESIGN_PERSON_AND_ORGANIZATION_ASSIGNMENT ( #231, #52, ( #237 ) ) ;
#58 = DIRECTION ( 'NONE',  ( 0.000000000000000000, 0.000000000000000000, 1.000000000000000000 ) ) ;
#59 = CYLINDRICAL_SURFACE ( 'NONE', #41, 16.00000000000000000 ) ;
#60 = CARTESIAN_POINT ( 'NONE',  ( -20.00000000000000000, 0.000000000000000000, 10.00000000000000000 ) ) ;
#61 = ADVANCED_FACE ( 'NONE', ( #198 ), #2, .T. ) ;
#62 = DIRECTION ( 'NONE',  ( -0.000000000000000000, -0.000000000000000000, -1.000000000000000000 ) ) ;
#63 = DIRECTION ( 'NONE',  ( 1.000000000000000000, 0.000000000000000000, 0.000000000000000000 ) ) ;
#64 = LOCAL_TIME ( 11, 6, 11.00000000000000000, #224 ) ;
#65 = APPLICATION_PROTOCOL_DEFINITION ( 'international standard', 'config_control_design', 1994, #93 ) ;
#66 = APPROVAL_STATUS ( 'not_yet_approved' ) ;
#67 = AXIS2_PLACEMENT_3D ( 'NONE', #50, #173, #184 ) ;
#68 = CARTESIAN_POINT ( 'NONE',  ( 0.000000000000000000, 0.000000000000000000, 10.00000000000000000 ) ) ;
#69 = EDGE_CURVE ( 'NONE', #15, #97, #217, .T. ) ;
#70 = DIRECTION ( 'NONE',  ( 1.000000000000000000, 0.000000000000000000, -0.000000000000000000 ) ) ;
#71 = PERSON_AND_ORGANIZATION ( #13, #124 ) ;
#72 = EDGE_LOOP ( 'NONE', ( #248, #154 ) ) ;
#73 = FACE_OUTER_BOUND ( 'NONE', #96, .T. ) ;
#74 = AXIS2_PLACEMENT_3D ( 'NONE', #103, #58, #22 ) ;
#75 = AXIS2_PLACEMENT_3D ( 'NONE', #68, #227, #165 ) ;
#76 = APPROVAL ( #66, 'NEURÈENÝ' ) ;
#77 = ORIENTED_EDGE ( 'NONE', *, *, #215, .F. ) ;
#78 = DIRECTION ( 'NONE',  ( 1.000000000000000000, 0.000000000000000000, 0.000000000000000000 ) ) ;
#79 = DIRECTION ( 'NONE',  ( -1.000000000000000000, 0.000000000000000000, 0.000000000000000000 ) ) ;
#80 = AXIS2_PLACEMENT_3D ( 'NONE', #143, #123, #63 ) ;
#81 = PLANE ( 'NONE',  #172 ) ;
#82 = DIRECTION ( 'NONE',  ( -0.000000000000000000, -0.000000000000000000, -1.000000000000000000 ) ) ;
#83 = MECHANICAL_CONTEXT ( 'NONE', #93, 'mechanical' ) ;
#84 = LOCAL_TIME ( 11, 6, 11.00000000000000000, #92 ) ;
#85 = EDGE_CURVE ( 'NONE', #193, #16, #236, .T. ) ;
#86 = COORDINATED_UNIVERSAL_TIME_OFFSET ( 1, 0, .AHEAD. ) ;
#87 = PERSON_AND_ORGANIZATION ( #13, #124 ) ;
#88 = CC_DESIGN_PERSON_AND_ORGANIZATION_ASSIGNMENT ( #246, #188, ( #189 ) ) ;
#89 = PERSON_AND_ORGANIZATION_ROLE ( 'design_supplier' ) ;
#90 = MANIFOLD_SOLID_BREP ( 'Pøidat vysunutím3', #158 ) ;
#91 = ADVANCED_FACE ( 'NONE', ( #238, #240 ), #81, .T. ) ;
#92 = COORDINATED_UNIVERSAL_TIME_OFFSET ( 1, 0, .AHEAD. ) ;
#93 = APPLICATION_CONTEXT ( 'configuration controlled 3d designs of mechanical parts and assemblies' ) ;
#94 = CIRCLE ( 'NONE', #74, 16.00000000000000000 ) ;
#95 = COORDINATED_UNIVERSAL_TIME_OFFSET ( 1, 0, .AHEAD. ) ;
#96 = EDGE_LOOP ( 'NONE', ( #136, #250, #112, #113 ) ) ;
#97 = VERTEX_POINT ( 'NONE', #36 ) ;
#98 = ADVANCED_FACE ( 'NONE', ( #196 ), #59, .T. ) ;
#99 = CC_DESIGN_APPROVAL ( #76, ( #189 ) ) ;
#100 = ADVANCED_BREP_SHAPE_REPRESENTATION ( '1e14', ( #90, #195 ), #247 ) ;
#101 = CARTESIAN_POINT ( 'NONE',  ( 0.000000000000000000, 0.000000000000000000, 10.00000000000000000 ) ) ;
#102 = ADVANCED_FACE ( 'NONE', ( #235 ), #120, .T. ) ;
#103 = CARTESIAN_POINT ( 'NONE',  ( 0.000000000000000000, 0.000000000000000000, 10.00000000000000000 ) ) ;
#104 = DIRECTION ( 'NONE',  ( -0.000000000000000000, -0.000000000000000000, -1.000000000000000000 ) ) ;
#105 = DIRECTION ( 'NONE',  ( 1.000000000000000000, 0.000000000000000000, 0.000000000000000000 ) ) ;
#106 = CARTESIAN_POINT ( 'NONE',  ( 16.00000000000000000, 1.959434878635764737E-15, 10.00000000000000000 ) ) ;
#107 = DIRECTION ( 'NONE',  ( 1.000000000000000000, 0.000000000000000000, 0.000000000000000000 ) ) ;
#108 = CALENDAR_DATE ( 2023, 12, 2 ) ;
#109 = APPROVAL_DATE_TIME ( #26, #76 ) ;
#110 = FACE_OUTER_BOUND ( 'NONE', #212, .T. ) ;
#111 = CARTESIAN_POINT ( 'NONE',  ( 20.00000000000000000, 2.449293598294706513E-15, 10.00000000000000000 ) ) ;
#112 = ORIENTED_EDGE ( 'NONE', *, *, #119, .T. ) ;
#113 = ORIENTED_EDGE ( 'NONE', *, *, #85, .F. ) ;
#114 = VERTEX_POINT ( 'NONE', #121 ) ;
#115 = ORIENTED_EDGE ( 'NONE', *, *, #147, .F. ) ;
#116 = PRODUCT_DEFINITION_SHAPE ( 'NONE', 'NONE',  #49 ) ;
#117 = ORIENTED_EDGE ( 'NONE', *, *, #215, .T. ) ;
#118 = DIRECTION ( 'NONE',  ( -0.000000000000000000, -0.000000000000000000, -1.000000000000000000 ) ) ;
#119 = EDGE_CURVE ( 'NONE', #30, #16, #94, .T. ) ;
#120 = PLANE ( 'NONE',  #130 ) ;
#121 = CARTESIAN_POINT ( 'NONE',  ( 20.00000000000000000, 2.449293598294706513E-15, 0.000000000000000000 ) ) ;
#122 = VECTOR ( 'NONE', #160, 1000.000000000000000 ) ;
#123 = DIRECTION ( 'NONE',  ( 0.000000000000000000, 0.000000000000000000, 1.000000000000000000 ) ) ;
#124 = ORGANIZATION ( 'NEURÈENÝ', 'NEURÈENÝ', '' ) ;
#125 = CARTESIAN_POINT ( 'NONE',  ( -20.00000000000000000, 0.000000000000000000, 10.00000000000000000 ) ) ;
#126 = ADVANCED_FACE ( 'NONE', ( #179 ), #139, .T. ) ;
#127 =( NAMED_UNIT ( * ) SI_UNIT ( $, .STERADIAN. ) SOLID_ANGLE_UNIT ( ) );
#128 = APPROVAL_STATUS ( 'not_yet_approved' ) ;
#129 = DIRECTION ( 'NONE',  ( 0.000000000000000000, 0.000000000000000000, 1.000000000000000000 ) ) ;
#130 = AXIS2_PLACEMENT_3D ( 'NONE', #219, #156, #39 ) ;
#131 = CC_DESIGN_SECURITY_CLASSIFICATION ( #237, ( #189 ) ) ;
#132 = ORIENTED_EDGE ( 'NONE', *, *, #140, .T. ) ;
#133 = EDGE_CURVE ( 'NONE', #32, #193, #167, .T. ) ;
#134 = AXIS2_PLACEMENT_3D ( 'NONE', #243, #223, #107 ) ;
#135 = CALENDAR_DATE ( 2023, 12, 2 ) ;
#136 = ORIENTED_EDGE ( 'NONE', *, *, #133, .F. ) ;
#137 = SHAPE_DEFINITION_REPRESENTATION ( #116, #100 ) ;
#138 = EDGE_LOOP ( 'NONE', ( #174, #77, #31, #210 ) ) ;
#139 = CYLINDRICAL_SURFACE ( 'NONE', #245, 20.00000000000000000 ) ;
#140 = EDGE_CURVE ( 'NONE', #193, #32, #54, .T. ) ;
#141 = CARTESIAN_POINT ( 'NONE',  ( 16.00000000000000000, 1.959434878635764737E-15, 800.0000000000000000 ) ) ;
#142 = DIRECTION ( 'NONE',  ( 0.000000000000000000, 0.000000000000000000, 1.000000000000000000 ) ) ;
#143 = CARTESIAN_POINT ( 'NONE',  ( 0.000000000000000000, 0.000000000000000000, 10.00000000000000000 ) ) ;
#144 = DIRECTION ( 'NONE',  ( 0.000000000000000000, 0.000000000000000000, 1.000000000000000000 ) ) ;
#145 = APPROVAL_PERSON_ORGANIZATION ( #146, #161, #204 ) ;
#146 = PERSON_AND_ORGANIZATION ( #13, #124 ) ;
#147 = EDGE_CURVE ( 'NONE', #32, #30, #220, .T. ) ;
#148 = VECTOR ( 'NONE', #82, 1000.000000000000000 ) ;
#149 = APPROVAL_ROLE ( '' ) ;
#150 = AXIS2_PLACEMENT_3D ( 'NONE', #185, #129, #70 ) ;
#151 = DATE_AND_TIME ( #209, #208 ) ;
#152 = ORIENTED_EDGE ( 'NONE', *, *, #85, .T. ) ;
#153 = EDGE_CURVE ( 'NONE', #16, #30, #177, .T. ) ;
#154 = ORIENTED_EDGE ( 'NONE', *, *, #119, .F. ) ;
#155 = EDGE_LOOP ( 'NONE', ( #115, #191, #152, #192 ) ) ;
#156 = DIRECTION ( 'NONE',  ( 0.000000000000000000, 0.000000000000000000, 1.000000000000000000 ) ) ;
#157 = DIRECTION ( 'NONE',  ( -0.000000000000000000, -0.000000000000000000, -1.000000000000000000 ) ) ;
#158 = CLOSED_SHELL ( 'NONE', ( #5, #126, #61, #91, #229, #98, #102 ) ) ;
#159 = CARTESIAN_POINT ( 'NONE',  ( 20.00000000000000000, 2.449293598294706513E-15, 10.00000000000000000 ) ) ;
#160 = DIRECTION ( 'NONE',  ( -0.000000000000000000, -0.000000000000000000, -1.000000000000000000 ) ) ;
#161 = APPROVAL ( #128, 'NEURÈENÝ' ) ;
#162 = DIRECTION ( 'NONE',  ( 0.000000000000000000, 0.000000000000000000, 1.000000000000000000 ) ) ;
#163 = PRODUCT ( '1e14', '1e14', '', ( #83 ) ) ;
#164 = AXIS2_PLACEMENT_3D ( 'NONE', #23, #241, #105 ) ;
#165 = DIRECTION ( 'NONE',  ( 1.000000000000000000, 0.000000000000000000, 0.000000000000000000 ) ) ;
#166 = CALENDAR_DATE ( 2023, 12, 2 ) ;
#167 = CIRCLE ( 'NONE', #251, 16.00000000000000000 ) ;
#168 = VECTOR ( 'NONE', #6, 1000.000000000000000 ) ;
#169 = PERSON_AND_ORGANIZATION_ROLE ( 'creator' ) ;
#170 = SECURITY_CLASSIFICATION_LEVEL ( 'unclassified' ) ;
#171 = APPROVAL ( #249, 'NEURÈENÝ' ) ;
#172 = AXIS2_PLACEMENT_3D ( 'NONE', #101, #142, #183 ) ;
#173 = DIRECTION ( 'NONE',  ( -0.000000000000000000, -0.000000000000000000, -1.000000000000000000 ) ) ;
#174 = ORIENTED_EDGE ( 'NONE', *, *, #17, .F. ) ;
#175 = APPROVAL_DATE_TIME ( #151, #171 ) ;
#176 = ORIENTED_EDGE ( 'NONE', *, *, #17, .T. ) ;
#177 = CIRCLE ( 'NONE', #80, 16.00000000000000000 ) ;
#178 = EDGE_LOOP ( 'NONE', ( #117, #211 ) ) ;
#179 = FACE_OUTER_BOUND ( 'NONE', #18, .T. ) ;
#180 = DIRECTION ( 'NONE',  ( 1.000000000000000000, 0.000000000000000000, 0.000000000000000000 ) ) ;
#181 = CARTESIAN_POINT ( 'NONE',  ( 0.000000000000000000, 0.000000000000000000, 800.0000000000000000 ) ) ;
#182 = CC_DESIGN_PERSON_AND_ORGANIZATION_ASSIGNMENT ( #87, #169, ( #49 ) ) ;
#183 = DIRECTION ( 'NONE',  ( 1.000000000000000000, 0.000000000000000000, -0.000000000000000000 ) ) ;
#184 = DIRECTION ( 'NONE',  ( -1.000000000000000000, 0.000000000000000000, 0.000000000000000000 ) ) ;
#185 = CARTESIAN_POINT ( 'NONE',  ( 0.000000000000000000, 0.000000000000000000, 0.000000000000000000 ) ) ;
#186 = APPROVAL_DATE_TIME ( #206, #161 ) ;
#187 =( NAMED_UNIT ( * ) PLANE_ANGLE_UNIT ( ) SI_UNIT ( $, .RADIAN. ) );
#188 = PERSON_AND_ORGANIZATION_ROLE ( 'creator' ) ;
#189 = PRODUCT_DEFINITION_FORMATION_WITH_SPECIFIED_SOURCE ( 'LIBOVOLNÝ', '', #163, .NOT_KNOWN. ) ;
#190 = ORIENTED_EDGE ( 'NONE', *, *, #69, .F. ) ;
#191 = ORIENTED_EDGE ( 'NONE', *, *, #140, .F. ) ;
#192 = ORIENTED_EDGE ( 'NONE', *, *, #153, .T. ) ;
#193 = VERTEX_POINT ( 'NONE', #200 ) ;
#194 = CC_DESIGN_DATE_AND_TIME_ASSIGNMENT ( #244, #47, ( #49 ) ) ;
#195 = AXIS2_PLACEMENT_3D ( 'NONE', #8, #9, #207 ) ;
#196 = FACE_OUTER_BOUND ( 'NONE', #155, .T. ) ;
#197 = LINE ( 'NONE', #159, #122 ) ;
#198 = FACE_OUTER_BOUND ( 'NONE', #138, .T. ) ;
#199 = CIRCLE ( 'NONE', #164, 20.00000000000000000 ) ;
#200 = CARTESIAN_POINT ( 'NONE',  ( -16.00000000000000000, 0.000000000000000000, 800.0000000000000000 ) ) ;
#201 = DIRECTION ( 'NONE',  ( -1.000000000000000000, 0.000000000000000000, 0.000000000000000000 ) ) ;
#202 = APPLICATION_PROTOCOL_DEFINITION ( 'international standard', 'config_control_design', 1994, #253 ) ;
#203 = PRODUCT_RELATED_PRODUCT_CATEGORY ( 'detail', '', ( #163 ) ) ;
#204 = APPROVAL_ROLE ( '' ) ;
#205 = CALENDAR_DATE ( 2023, 12, 2 ) ;
#206 = DATE_AND_TIME ( #108, #12 ) ;
#207 = DIRECTION ( 'NONE',  ( 1.000000000000000000, 0.000000000000000000, 0.000000000000000000 ) ) ;
#208 = LOCAL_TIME ( 11, 6, 11.00000000000000000, #95 ) ;
#209 = CALENDAR_DATE ( 2023, 12, 2 ) ;
#210 = ORIENTED_EDGE ( 'NONE', *, *, #226, .T. ) ;
#211 = ORIENTED_EDGE ( 'NONE', *, *, #234, .T. ) ;
#212 = EDGE_LOOP ( 'NONE', ( #255, #35 ) ) ;
#213 = CYLINDRICAL_SURFACE ( 'NONE', #67, 16.00000000000000000 ) ;
#214 = DATE_AND_TIME ( #135, #84 ) ;
#215 = EDGE_CURVE ( 'NONE', #15, #252, #199, .T. ) ;
#216 = ORIENTED_EDGE ( 'NONE', *, *, #37, .T. ) ;
#217 = LINE ( 'NONE', #60, #148 ) ;
#218 = CARTESIAN_POINT ( 'NONE',  ( -16.00000000000000000, 0.000000000000000000, 800.0000000000000000 ) ) ;
#219 = CARTESIAN_POINT ( 'NONE',  ( 0.000000000000000000, 0.000000000000000000, 800.0000000000000000 ) ) ;
#220 = LINE ( 'NONE', #3, #233 ) ;
#221 = DIRECTION ( 'NONE',  ( 0.000000000000000000, 0.000000000000000000, 1.000000000000000000 ) ) ;
#222 = PLANE ( 'NONE',  #150 ) ;
#223 = DIRECTION ( 'NONE',  ( 0.000000000000000000, 0.000000000000000000, 1.000000000000000000 ) ) ;
#224 = COORDINATED_UNIVERSAL_TIME_OFFSET ( 1, 0, .AHEAD. ) ;
#225 = APPROVAL_PERSON_ORGANIZATION ( #71, #171, #55 ) ;
#226 = EDGE_CURVE ( 'NONE', #97, #114, #46, .T. ) ;
#227 = DIRECTION ( 'NONE',  ( 0.000000000000000000, 0.000000000000000000, 1.000000000000000000 ) ) ;
#228 = PERSON_AND_ORGANIZATION ( #13, #124 ) ;
#229 = ADVANCED_FACE ( 'NONE', ( #110 ), #222, .F. ) ;
#230 = DESIGN_CONTEXT ( 'detailed design', #253, 'design' ) ;
#231 = PERSON_AND_ORGANIZATION ( #13, #124 ) ;
#232 = ORIENTED_EDGE ( 'NONE', *, *, #234, .F. ) ;
#233 = VECTOR ( 'NONE', #62, 1000.000000000000000 ) ;
#234 = EDGE_CURVE ( 'NONE', #252, #15, #19, .T. ) ;
#235 = FACE_OUTER_BOUND ( 'NONE', #53, .T. ) ;
#236 = LINE ( 'NONE', #218, #168 ) ;
#237 = SECURITY_CLASSIFICATION ( '', '', #170 ) ;
#238 = FACE_BOUND ( 'NONE', #72, .T. ) ;
#239 = UNCERTAINTY_MEASURE_WITH_UNIT (LENGTH_MEASURE( 1.000000000000000082E-05 ), #48, 'distance_accuracy_value', 'NONE');
#240 = FACE_OUTER_BOUND ( 'NONE', #178, .T. ) ;
#241 = DIRECTION ( 'NONE',  ( 0.000000000000000000, 0.000000000000000000, 1.000000000000000000 ) ) ;
#242 = AXIS2_PLACEMENT_3D ( 'NONE', #4, #157, #79 ) ;
#243 = CARTESIAN_POINT ( 'NONE',  ( 0.000000000000000000, 0.000000000000000000, 0.000000000000000000 ) ) ;
#244 = DATE_AND_TIME ( #166, #28 ) ;
#245 = AXIS2_PLACEMENT_3D ( 'NONE', #20, #104, #201 ) ;
#246 = PERSON_AND_ORGANIZATION ( #13, #124 ) ;
#247 =( GEOMETRIC_REPRESENTATION_CONTEXT ( 3 ) GLOBAL_UNCERTAINTY_ASSIGNED_CONTEXT ( ( #239 ) ) GLOBAL_UNIT_ASSIGNED_CONTEXT ( ( #48, #187, #127 ) ) REPRESENTATION_CONTEXT ( 'NONE', 'WORKASPACE' ) );
#248 = ORIENTED_EDGE ( 'NONE', *, *, #153, .F. ) ;
#249 = APPROVAL_STATUS ( 'not_yet_approved' ) ;
#250 = ORIENTED_EDGE ( 'NONE', *, *, #147, .T. ) ;
#251 = AXIS2_PLACEMENT_3D ( 'NONE', #1, #221, #24 ) ;
#252 = VERTEX_POINT ( 'NONE', #111 ) ;
#253 = APPLICATION_CONTEXT ( 'configuration controlled 3d designs of mechanical parts and assemblies' ) ;
#254 = AXIS2_PLACEMENT_3D ( 'NONE', #181, #162, #180 ) ;
#255 = ORIENTED_EDGE ( 'NONE', *, *, #226, .F. ) ;
ENDSEC;
END-ISO-10303-21;
