ISO-10303-21;
HEADER;
FILE_DESCRIPTION (( 'STEP AP203' ),
    '1' );
FILE_NAME ('aeec.STEP',
    '2023-03-31T09:50:35',
    ( '' ),
    ( '' ),
    'SwSTEP 2.0',
    'SolidWorks 2019',
    '' );
FILE_SCHEMA (( 'CONFIG_CONTROL_DESIGN' ));
ENDSEC;

DATA;
#1 = EDGE_LOOP ( 'NONE', ( #156, #211, #251, #196 ) ) ;
#2 = EDGE_LOOP ( 'NONE', ( #39, #22 ) ) ;
#3 = CLOSED_SHELL ( 'NONE', ( #163, #199, #152, #7, #20, #174, #78 ) ) ;
#4 = LOCAL_TIME ( 11, 50, 35.00000000000000000, #37 ) ;
#5 = VERTEX_POINT ( 'NONE', #62 ) ;
#6 = ORIENTED_EDGE ( 'NONE', *, *, #219, .T. ) ;
#7 = ADVANCED_FACE ( 'NONE', ( #143, #123 ), #77, .T. ) ;
#8 = LINE ( 'NONE', #108, #59 ) ;
#9 =( NAMED_UNIT ( * ) PLANE_ANGLE_UNIT ( ) SI_UNIT ( $, .RADIAN. ) );
#10 = AXIS2_PLACEMENT_3D ( 'NONE', #84, #66, #204 ) ;
#11 = CARTESIAN_POINT ( 'NONE',  ( -1.250000000000000000, 0.000000000000000000, 1.199999999999999956 ) ) ;
#12 = LINE ( 'NONE', #147, #47 ) ;
#13 = CARTESIAN_POINT ( 'NONE',  ( 0.000000000000000000, 0.000000000000000000, 1.199999999999999956 ) ) ;
#14 = AXIS2_PLACEMENT_3D ( 'NONE', #205, #146, #48 ) ;
#15 = PERSON_AND_ORGANIZATION_ROLE ( 'classification_officer' ) ;
#16 = PERSON_AND_ORGANIZATION_ROLE ( 'design_owner' ) ;
#17 = COORDINATED_UNIVERSAL_TIME_OFFSET ( 1, 0, .AHEAD. ) ;
#18 = AXIS2_PLACEMENT_3D ( 'NONE', #167, #169, #186 ) ;
#19 = DATE_TIME_ROLE ( 'creation_date' ) ;
#20 = ADVANCED_FACE ( 'NONE', ( #159 ), #44, .F. ) ;
#21 = DIRECTION ( 'NONE',  ( 0.000000000000000000, 0.000000000000000000, 1.000000000000000000 ) ) ;
#22 = ORIENTED_EDGE ( 'NONE', *, *, #214, .F. ) ;
#23 = VERTEX_POINT ( 'NONE', #141 ) ;
#24 = APPROVAL_PERSON_ORGANIZATION ( #71, #138, #72 ) ;
#25 = ORIENTED_EDGE ( 'NONE', *, *, #153, .F. ) ;
#26 = LINE ( 'NONE', #101, #192 ) ;
#27 = CC_DESIGN_APPROVAL ( #170, ( #203 ) ) ;
#28 = APPLICATION_PROTOCOL_DEFINITION ( 'international standard', 'config_control_design', 1994, #96 ) ;
#29 = DIRECTION ( 'NONE',  ( -1.000000000000000000, 0.000000000000000000, 0.000000000000000000 ) ) ;
#30 = LINE ( 'NONE', #225, #227 ) ;
#31 = CC_DESIGN_SECURITY_CLASSIFICATION ( #203, ( #189 ) ) ;
#32 = DIRECTION ( 'NONE',  ( 1.000000000000000000, 0.000000000000000000, 0.000000000000000000 ) ) ;
#33 = DATE_TIME_ROLE ( 'classification_date' ) ;
#34 = VERTEX_POINT ( 'NONE', #81 ) ;
#35 = CC_DESIGN_PERSON_AND_ORGANIZATION_ASSIGNMENT ( #210, #16, ( #131 ) ) ;
#36 = ADVANCED_BREP_SHAPE_REPRESENTATION ( 'aeec', ( #162, #255 ), #201 ) ;
#37 = COORDINATED_UNIVERSAL_TIME_OFFSET ( 1, 0, .AHEAD. ) ;
#38 = DATE_AND_TIME ( #248, #40 ) ;
#39 = ORIENTED_EDGE ( 'NONE', *, *, #93, .F. ) ;
#40 = LOCAL_TIME ( 11, 50, 35.00000000000000000, #130 ) ;
#41 = CARTESIAN_POINT ( 'NONE',  ( 0.000000000000000000, 0.000000000000000000, 1.199999999999999956 ) ) ;
#42 = ORIENTED_EDGE ( 'NONE', *, *, #228, .F. ) ;
#43 = PERSON ( 'NEURÈENÝ', 'NEURÈENÝ', 'NEURÈENÝ', ('NEURÈENÝ'), ('NEURÈENÝ'), ('NEURÈENÝ') ) ;
#44 = PLANE ( 'NONE',  #99 ) ;
#45 = VERTEX_POINT ( 'NONE', #80 ) ;
#46 = DIRECTION ( 'NONE',  ( 1.000000000000000000, 0.000000000000000000, 0.000000000000000000 ) ) ;
#47 = VECTOR ( 'NONE', #85, 1000.000000000000000 ) ;
#48 = DIRECTION ( 'NONE',  ( 1.000000000000000000, 0.000000000000000000, 0.000000000000000000 ) ) ;
#49 = FACE_OUTER_BOUND ( 'NONE', #90, .T. ) ;
#50 = EDGE_CURVE ( 'NONE', #23, #100, #126, .T. ) ;
#51 = SHAPE_DEFINITION_REPRESENTATION ( #103, #36 ) ;
#52 = EDGE_CURVE ( 'NONE', #34, #5, #26, .T. ) ;
#53 = PERSON_AND_ORGANIZATION ( #43, #74 ) ;
#54 = PERSON_AND_ORGANIZATION ( #43, #74 ) ;
#55 = AXIS2_PLACEMENT_3D ( 'NONE', #13, #207, #29 ) ;
#56 = APPROVAL_STATUS ( 'not_yet_approved' ) ;
#57 = CARTESIAN_POINT ( 'NONE',  ( 0.000000000000000000, 0.000000000000000000, 122.5000000000000000 ) ) ;
#58 = DIRECTION ( 'NONE',  ( 1.000000000000000000, 0.000000000000000000, 0.000000000000000000 ) ) ;
#59 = VECTOR ( 'NONE', #224, 1000.000000000000000 ) ;
#60 = DIRECTION ( 'NONE',  ( 0.000000000000000000, 0.000000000000000000, 1.000000000000000000 ) ) ;
#61 = CC_DESIGN_DATE_AND_TIME_ASSIGNMENT ( #134, #33, ( #203 ) ) ;
#62 = CARTESIAN_POINT ( 'NONE',  ( 1.250000000000000000, 1.530808498934191571E-16, 0.000000000000000000 ) ) ;
#63 = ORIENTED_EDGE ( 'NONE', *, *, #209, .T. ) ;
#64 = FACE_OUTER_BOUND ( 'NONE', #122, .T. ) ;
#65 = DIRECTION ( 'NONE',  ( -1.000000000000000000, 0.000000000000000000, 0.000000000000000000 ) ) ;
#66 = DIRECTION ( 'NONE',  ( 0.000000000000000000, 0.000000000000000000, 1.000000000000000000 ) ) ;
#67 = FACE_OUTER_BOUND ( 'NONE', #241, .T. ) ;
#68 = PERSON_AND_ORGANIZATION ( #43, #74 ) ;
#69 = AXIS2_PLACEMENT_3D ( 'NONE', #185, #106, #46 ) ;
#70 = VERTEX_POINT ( 'NONE', #182 ) ;
#71 = PERSON_AND_ORGANIZATION ( #43, #74 ) ;
#72 = APPROVAL_ROLE ( '' ) ;
#73 = ORIENTED_EDGE ( 'NONE', *, *, #109, .F. ) ;
#74 = ORGANIZATION ( 'NEURÈENÝ', 'NEURÈENÝ', '' ) ;
#75 = ORIENTED_EDGE ( 'NONE', *, *, #214, .T. ) ;
#76 = CARTESIAN_POINT ( 'NONE',  ( 0.5000000000000000000, 6.123233995736766036E-17, 1.199999999999999956 ) ) ;
#77 = PLANE ( 'NONE',  #216 ) ;
#78 = ADVANCED_FACE ( 'NONE', ( #161 ), #236, .T. ) ;
#79 = CIRCLE ( 'NONE', #232, 1.250000000000000000 ) ;
#80 = CARTESIAN_POINT ( 'NONE',  ( 0.5000000000000000000, 6.123233995736766036E-17, 122.5000000000000000 ) ) ;
#81 = CARTESIAN_POINT ( 'NONE',  ( 1.250000000000000000, 1.530808498934191571E-16, 1.199999999999999956 ) ) ;
#82 = CARTESIAN_POINT ( 'NONE',  ( -0.5000000000000000000, 0.000000000000000000, 122.5000000000000000 ) ) ;
#83 = CIRCLE ( 'NONE', #14, 0.5000000000000000000 ) ;
#84 = CARTESIAN_POINT ( 'NONE',  ( 0.000000000000000000, 0.000000000000000000, 122.5000000000000000 ) ) ;
#85 = DIRECTION ( 'NONE',  ( -0.000000000000000000, -0.000000000000000000, -1.000000000000000000 ) ) ;
#86 = CC_DESIGN_APPROVAL ( #105, ( #189 ) ) ;
#87 = CARTESIAN_POINT ( 'NONE',  ( 0.000000000000000000, 0.000000000000000000, 1.199999999999999956 ) ) ;
#88 = PERSON_AND_ORGANIZATION ( #43, #74 ) ;
#89 = CC_DESIGN_PERSON_AND_ORGANIZATION_ASSIGNMENT ( #151, #15, ( #203 ) ) ;
#90 = EDGE_LOOP ( 'NONE', ( #42, #25, #63, #254 ) ) ;
#91 = APPROVAL_DATE_TIME ( #253, #138 ) ;
#92 = APPROVAL_DATE_TIME ( #38, #105 ) ;
#93 = EDGE_CURVE ( 'NONE', #70, #5, #79, .T. ) ;
#94 = AXIS2_PLACEMENT_3D ( 'NONE', #87, #183, #243 ) ;
#95 = DIRECTION ( 'NONE',  ( 0.000000000000000000, 0.000000000000000000, 1.000000000000000000 ) ) ;
#96 = APPLICATION_CONTEXT ( 'configuration controlled 3d designs of mechanical parts and assemblies' ) ;
#97 = DIRECTION ( 'NONE',  ( 0.000000000000000000, 0.000000000000000000, 1.000000000000000000 ) ) ;
#98 = EDGE_LOOP ( 'NONE', ( #181, #240 ) ) ;
#99 = AXIS2_PLACEMENT_3D ( 'NONE', #222, #60, #200 ) ;
#100 = VERTEX_POINT ( 'NONE', #76 ) ;
#101 = CARTESIAN_POINT ( 'NONE',  ( 1.250000000000000000, 1.530808498934191571E-16, 1.199999999999999956 ) ) ;
#102 = CIRCLE ( 'NONE', #69, 1.250000000000000000 ) ;
#103 = PRODUCT_DEFINITION_SHAPE ( 'NONE', 'NONE',  #231 ) ;
#104 = DIRECTION ( 'NONE',  ( -0.000000000000000000, -0.000000000000000000, -1.000000000000000000 ) ) ;
#105 = APPROVAL ( #132, 'NEURÈENÝ' ) ;
#106 = DIRECTION ( 'NONE',  ( 0.000000000000000000, 0.000000000000000000, 1.000000000000000000 ) ) ;
#107 = CIRCLE ( 'NONE', #118, 1.250000000000000000 ) ;
#108 = CARTESIAN_POINT ( 'NONE',  ( 0.5000000000000000000, 6.123233995736766036E-17, 122.5000000000000000 ) ) ;
#109 = EDGE_CURVE ( 'NONE', #34, #178, #107, .T. ) ;
#110 = CALENDAR_DATE ( 2023, 31, 3 ) ;
#111 = CALENDAR_DATE ( 2023, 31, 3 ) ;
#112 = COORDINATED_UNIVERSAL_TIME_OFFSET ( 1, 0, .AHEAD. ) ;
#113 = LOCAL_TIME ( 11, 50, 35.00000000000000000, #112 ) ;
#114 = APPLICATION_PROTOCOL_DEFINITION ( 'international standard', 'config_control_design', 1994, #218 ) ;
#115 = CC_DESIGN_PERSON_AND_ORGANIZATION_ASSIGNMENT ( #68, #176, ( #189 ) ) ;
#116 = DESIGN_CONTEXT ( 'detailed design', #218, 'design' ) ;
#117 = CARTESIAN_POINT ( 'NONE',  ( 0.000000000000000000, 0.000000000000000000, 0.000000000000000000 ) ) ;
#118 = AXIS2_PLACEMENT_3D ( 'NONE', #158, #237, #58 ) ;
#119 = EDGE_CURVE ( 'NONE', #100, #23, #83, .T. ) ;
#120 = DIRECTION ( 'NONE',  ( 1.000000000000000000, 0.000000000000000000, -0.000000000000000000 ) ) ;
#121 = ORIENTED_EDGE ( 'NONE', *, *, #93, .T. ) ;
#122 = EDGE_LOOP ( 'NONE', ( #164, #179, #142, #121 ) ) ;
#123 = FACE_OUTER_BOUND ( 'NONE', #195, .T. ) ;
#124 = CARTESIAN_POINT ( 'NONE',  ( 0.000000000000000000, 0.000000000000000000, 122.5000000000000000 ) ) ;
#125 = DIRECTION ( 'NONE',  ( -0.000000000000000000, -0.000000000000000000, -1.000000000000000000 ) ) ;
#126 = CIRCLE ( 'NONE', #208, 0.5000000000000000000 ) ;
#127 = CYLINDRICAL_SURFACE ( 'NONE', #160, 0.5000000000000000000 ) ;
#128 = DIRECTION ( 'NONE',  ( 0.000000000000000000, 0.000000000000000000, 1.000000000000000000 ) ) ;
#129 = DIRECTION ( 'NONE',  ( -0.000000000000000000, -0.000000000000000000, -1.000000000000000000 ) ) ;
#130 = COORDINATED_UNIVERSAL_TIME_OFFSET ( 1, 0, .AHEAD. ) ;
#131 = PRODUCT ( 'aeec', 'aeec', '', ( #235 ) ) ;
#132 = APPROVAL_STATUS ( 'not_yet_approved' ) ;
#133 = VERTEX_POINT ( 'NONE', #82 ) ;
#134 = DATE_AND_TIME ( #233, #234 ) ;
#135 = PRODUCT_RELATED_PRODUCT_CATEGORY ( 'detail', '', ( #131 ) ) ;
#136 = DATE_AND_TIME ( #193, #4 ) ;
#137 = DIRECTION ( 'NONE',  ( 0.000000000000000000, 0.000000000000000000, 1.000000000000000000 ) ) ;
#138 = APPROVAL ( #56, 'NEURÈENÝ' ) ;
#139 = EDGE_LOOP ( 'NONE', ( #239, #220 ) ) ;
#140 = AXIS2_PLACEMENT_3D ( 'NONE', #145, #129, #149 ) ;
#141 = CARTESIAN_POINT ( 'NONE',  ( -0.5000000000000000000, 0.000000000000000000, 1.199999999999999956 ) ) ;
#142 = ORIENTED_EDGE ( 'NONE', *, *, #206, .T. ) ;
#143 = FACE_BOUND ( 'NONE', #139, .T. ) ;
#144 = CIRCLE ( 'NONE', #184, 0.5000000000000000000 ) ;
#145 = CARTESIAN_POINT ( 'NONE',  ( 0.000000000000000000, 0.000000000000000000, 1.199999999999999956 ) ) ;
#146 = DIRECTION ( 'NONE',  ( 0.000000000000000000, 0.000000000000000000, 1.000000000000000000 ) ) ;
#147 = CARTESIAN_POINT ( 'NONE',  ( -1.250000000000000000, 0.000000000000000000, 1.199999999999999956 ) ) ;
#148 = APPROVAL_PERSON_ORGANIZATION ( #213, #105, #230 ) ;
#149 = DIRECTION ( 'NONE',  ( -1.000000000000000000, 0.000000000000000000, 0.000000000000000000 ) ) ;
#150 = PERSON_AND_ORGANIZATION_ROLE ( 'design_supplier' ) ;
#151 = PERSON_AND_ORGANIZATION ( #43, #74 ) ;
#152 = ADVANCED_FACE ( 'NONE', ( #64 ), #187, .T. ) ;
#153 = EDGE_CURVE ( 'NONE', #133, #45, #166, .T. ) ;
#154 = APPROVAL_DATE_TIME ( #173, #170 ) ;
#155 = CIRCLE ( 'NONE', #94, 1.250000000000000000 ) ;
#156 = ORIENTED_EDGE ( 'NONE', *, *, #188, .F. ) ;
#157 = DIRECTION ( 'NONE',  ( -0.000000000000000000, -0.000000000000000000, -1.000000000000000000 ) ) ;
#158 = CARTESIAN_POINT ( 'NONE',  ( 0.000000000000000000, 0.000000000000000000, 1.199999999999999956 ) ) ;
#159 = FACE_OUTER_BOUND ( 'NONE', #2, .T. ) ;
#160 = AXIS2_PLACEMENT_3D ( 'NONE', #165, #125, #65 ) ;
#161 = FACE_OUTER_BOUND ( 'NONE', #98, .T. ) ;
#162 = MANIFOLD_SOLID_BREP ( 'Pøidat vysunutím3', #3 ) ;
#163 = ADVANCED_FACE ( 'NONE', ( #229 ), #127, .T. ) ;
#164 = ORIENTED_EDGE ( 'NONE', *, *, #52, .F. ) ;
#165 = CARTESIAN_POINT ( 'NONE',  ( 0.000000000000000000, 0.000000000000000000, 122.5000000000000000 ) ) ;
#166 = CIRCLE ( 'NONE', #10, 0.5000000000000000000 ) ;
#167 = CARTESIAN_POINT ( 'NONE',  ( 0.000000000000000000, 0.000000000000000000, 122.5000000000000000 ) ) ;
#168 =( NAMED_UNIT ( * ) SI_UNIT ( $, .STERADIAN. ) SOLID_ANGLE_UNIT ( ) );
#169 = DIRECTION ( 'NONE',  ( -0.000000000000000000, -0.000000000000000000, -1.000000000000000000 ) ) ;
#170 = APPROVAL ( #252, 'NEURÈENÝ' ) ;
#171 = COORDINATED_UNIVERSAL_TIME_OFFSET ( 1, 0, .AHEAD. ) ;
#172 = CARTESIAN_POINT ( 'NONE',  ( 0.000000000000000000, 0.000000000000000000, 0.000000000000000000 ) ) ;
#173 = DATE_AND_TIME ( #110, #238 ) ;
#174 = ADVANCED_FACE ( 'NONE', ( #49 ), #242, .T. ) ;
#175 = PERSON_AND_ORGANIZATION_ROLE ( 'creator' ) ;
#176 = PERSON_AND_ORGANIZATION_ROLE ( 'creator' ) ;
#177 = DIRECTION ( 'NONE',  ( 1.000000000000000000, 0.000000000000000000, 0.000000000000000000 ) ) ;
#178 = VERTEX_POINT ( 'NONE', #11 ) ;
#179 = ORIENTED_EDGE ( 'NONE', *, *, #219, .F. ) ;
#180 = CC_DESIGN_PERSON_AND_ORGANIZATION_ASSIGNMENT ( #53, #150, ( #189 ) ) ;
#181 = ORIENTED_EDGE ( 'NONE', *, *, #153, .T. ) ;
#182 = CARTESIAN_POINT ( 'NONE',  ( -1.250000000000000000, 0.000000000000000000, 0.000000000000000000 ) ) ;
#183 = DIRECTION ( 'NONE',  ( 0.000000000000000000, 0.000000000000000000, 1.000000000000000000 ) ) ;
#184 = AXIS2_PLACEMENT_3D ( 'NONE', #124, #128, #245 ) ;
#185 = CARTESIAN_POINT ( 'NONE',  ( 0.000000000000000000, 0.000000000000000000, 0.000000000000000000 ) ) ;
#186 = DIRECTION ( 'NONE',  ( -1.000000000000000000, 0.000000000000000000, 0.000000000000000000 ) ) ;
#187 = CYLINDRICAL_SURFACE ( 'NONE', #140, 1.250000000000000000 ) ;
#188 = EDGE_CURVE ( 'NONE', #45, #133, #144, .T. ) ;
#189 = PRODUCT_DEFINITION_FORMATION_WITH_SPECIFIED_SOURCE ( 'LIBOVOLNÝ', '', #131, .NOT_KNOWN. ) ;
#190 = SECURITY_CLASSIFICATION_LEVEL ( 'unclassified' ) ;
#191 = DIRECTION ( 'NONE',  ( 0.000000000000000000, 0.000000000000000000, 1.000000000000000000 ) ) ;
#192 = VECTOR ( 'NONE', #157, 1000.000000000000000 ) ;
#193 = CALENDAR_DATE ( 2023, 31, 3 ) ;
#194 = UNCERTAINTY_MEASURE_WITH_UNIT (LENGTH_MEASURE( 1.000000000000000082E-05 ), #226, 'distance_accuracy_value', 'NONE');
#195 = EDGE_LOOP ( 'NONE', ( #6, #249 ) ) ;
#196 = ORIENTED_EDGE ( 'NONE', *, *, #209, .F. ) ;
#197 = ORIENTED_EDGE ( 'NONE', *, *, #52, .T. ) ;
#198 = CC_DESIGN_DATE_AND_TIME_ASSIGNMENT ( #136, #19, ( #231 ) ) ;
#199 = ADVANCED_FACE ( 'NONE', ( #67 ), #244, .T. ) ;
#200 = DIRECTION ( 'NONE',  ( 1.000000000000000000, 0.000000000000000000, -0.000000000000000000 ) ) ;
#201 =( GEOMETRIC_REPRESENTATION_CONTEXT ( 3 ) GLOBAL_UNCERTAINTY_ASSIGNED_CONTEXT ( ( #194 ) ) GLOBAL_UNIT_ASSIGNED_CONTEXT ( ( #226, #9, #168 ) ) REPRESENTATION_CONTEXT ( 'NONE', 'WORKASPACE' ) );
#202 = DIRECTION ( 'NONE',  ( 1.000000000000000000, 0.000000000000000000, 0.000000000000000000 ) ) ;
#203 = SECURITY_CLASSIFICATION ( '', '', #190 ) ;
#204 = DIRECTION ( 'NONE',  ( 1.000000000000000000, 0.000000000000000000, 0.000000000000000000 ) ) ;
#205 = CARTESIAN_POINT ( 'NONE',  ( 0.000000000000000000, 0.000000000000000000, 1.199999999999999956 ) ) ;
#206 = EDGE_CURVE ( 'NONE', #178, #70, #12, .T. ) ;
#207 = DIRECTION ( 'NONE',  ( -0.000000000000000000, -0.000000000000000000, -1.000000000000000000 ) ) ;
#208 = AXIS2_PLACEMENT_3D ( 'NONE', #41, #95, #202 ) ;
#209 = EDGE_CURVE ( 'NONE', #133, #23, #30, .T. ) ;
#210 = PERSON_AND_ORGANIZATION ( #43, #74 ) ;
#211 = ORIENTED_EDGE ( 'NONE', *, *, #228, .T. ) ;
#212 = AXIS2_PLACEMENT_3D ( 'NONE', #57, #137, #215 ) ;
#213 = PERSON_AND_ORGANIZATION ( #43, #74 ) ;
#214 = EDGE_CURVE ( 'NONE', #5, #70, #102, .T. ) ;
#215 = DIRECTION ( 'NONE',  ( 1.000000000000000000, 0.000000000000000000, -0.000000000000000000 ) ) ;
#216 = AXIS2_PLACEMENT_3D ( 'NONE', #221, #97, #120 ) ;
#217 = ORIENTED_EDGE ( 'NONE', *, *, #206, .F. ) ;
#218 = APPLICATION_CONTEXT ( 'configuration controlled 3d designs of mechanical parts and assemblies' ) ;
#219 = EDGE_CURVE ( 'NONE', #178, #34, #155, .T. ) ;
#220 = ORIENTED_EDGE ( 'NONE', *, *, #119, .F. ) ;
#221 = CARTESIAN_POINT ( 'NONE',  ( 0.000000000000000000, 0.000000000000000000, 1.199999999999999956 ) ) ;
#222 = CARTESIAN_POINT ( 'NONE',  ( 0.000000000000000000, 0.000000000000000000, 0.000000000000000000 ) ) ;
#223 = APPROVAL_PERSON_ORGANIZATION ( #88, #170, #246 ) ;
#224 = DIRECTION ( 'NONE',  ( -0.000000000000000000, -0.000000000000000000, -1.000000000000000000 ) ) ;
#225 = CARTESIAN_POINT ( 'NONE',  ( -0.5000000000000000000, 0.000000000000000000, 122.5000000000000000 ) ) ;
#226 =( LENGTH_UNIT ( ) NAMED_UNIT ( * ) SI_UNIT ( .MILLI., .METRE. ) );
#227 = VECTOR ( 'NONE', #104, 1000.000000000000000 ) ;
#228 = EDGE_CURVE ( 'NONE', #45, #100, #8, .T. ) ;
#229 = FACE_OUTER_BOUND ( 'NONE', #1, .T. ) ;
#230 = APPROVAL_ROLE ( '' ) ;
#231 = PRODUCT_DEFINITION ( 'NEZNÁMÝ', '', #189, #116 ) ;
#232 = AXIS2_PLACEMENT_3D ( 'NONE', #117, #21, #177 ) ;
#233 = CALENDAR_DATE ( 2023, 31, 3 ) ;
#234 = LOCAL_TIME ( 11, 50, 35.00000000000000000, #171 ) ;
#235 = MECHANICAL_CONTEXT ( 'NONE', #96, 'mechanical' ) ;
#236 = PLANE ( 'NONE',  #212 ) ;
#237 = DIRECTION ( 'NONE',  ( 0.000000000000000000, 0.000000000000000000, 1.000000000000000000 ) ) ;
#238 = LOCAL_TIME ( 11, 50, 35.00000000000000000, #17 ) ;
#239 = ORIENTED_EDGE ( 'NONE', *, *, #50, .F. ) ;
#240 = ORIENTED_EDGE ( 'NONE', *, *, #188, .T. ) ;
#241 = EDGE_LOOP ( 'NONE', ( #73, #197, #75, #217 ) ) ;
#242 = CYLINDRICAL_SURFACE ( 'NONE', #18, 0.5000000000000000000 ) ;
#243 = DIRECTION ( 'NONE',  ( 1.000000000000000000, 0.000000000000000000, 0.000000000000000000 ) ) ;
#244 = CYLINDRICAL_SURFACE ( 'NONE', #55, 1.250000000000000000 ) ;
#245 = DIRECTION ( 'NONE',  ( 1.000000000000000000, 0.000000000000000000, 0.000000000000000000 ) ) ;
#246 = APPROVAL_ROLE ( '' ) ;
#247 = CC_DESIGN_PERSON_AND_ORGANIZATION_ASSIGNMENT ( #54, #175, ( #231 ) ) ;
#248 = CALENDAR_DATE ( 2023, 31, 3 ) ;
#249 = ORIENTED_EDGE ( 'NONE', *, *, #109, .T. ) ;
#250 = CC_DESIGN_APPROVAL ( #138, ( #231 ) ) ;
#251 = ORIENTED_EDGE ( 'NONE', *, *, #119, .T. ) ;
#252 = APPROVAL_STATUS ( 'not_yet_approved' ) ;
#253 = DATE_AND_TIME ( #111, #113 ) ;
#254 = ORIENTED_EDGE ( 'NONE', *, *, #50, .T. ) ;
#255 = AXIS2_PLACEMENT_3D ( 'NONE', #172, #191, #32 ) ;
ENDSEC;
END-ISO-10303-21;
