ISO-10303-21;
HEADER;
FILE_DESCRIPTION (( 'STEP AP203' ),
    '1' );
FILE_NAME ('94c5.STEP',
    '2023-02-12T11:13:56',
    ( '' ),
    ( '' ),
    'SwSTEP 2.0',
    'SolidWorks 2019',
    '' );
FILE_SCHEMA (( 'CONFIG_CONTROL_DESIGN' ));
ENDSEC;

DATA;
#1 = EDGE_CURVE ( 'NONE', #72, #192, #96, .T. ) ;
#2 = CARTESIAN_POINT ( 'NONE',  ( -5.500000000000000000, 0.000000000000000000, 400.0000000000000000 ) ) ;
#3 = APPLICATION_CONTEXT ( 'configuration controlled 3d designs of mechanical parts and assemblies' ) ;
#4 = PERSON_AND_ORGANIZATION ( #56, #98 ) ;
#5 = PERSON_AND_ORGANIZATION ( #56, #98 ) ;
#6 = AXIS2_PLACEMENT_3D ( 'NONE', #25, #255, #149 ) ;
#7 = LOCAL_TIME ( 12, 13, 56.00000000000000000, #36 ) ;
#8 = UNCERTAINTY_MEASURE_WITH_UNIT (LENGTH_MEASURE( 1.000000000000000082E-05 ), #253, 'distance_accuracy_value', 'NONE');
#9 = DIRECTION ( 'NONE',  ( 0.000000000000000000, 0.000000000000000000, 1.000000000000000000 ) ) ;
#10 = CC_DESIGN_DATE_AND_TIME_ASSIGNMENT ( #108, #57, ( #86 ) ) ;
#11 = DIRECTION ( 'NONE',  ( 0.000000000000000000, 0.000000000000000000, 1.000000000000000000 ) ) ;
#12 = CARTESIAN_POINT ( 'NONE',  ( 0.000000000000000000, 0.000000000000000000, 5.000000000000000000 ) ) ;
#13 = PERSON_AND_ORGANIZATION_ROLE ( 'design_supplier' ) ;
#14 = CARTESIAN_POINT ( 'NONE',  ( 0.000000000000000000, 0.000000000000000000, 5.000000000000000000 ) ) ;
#15 = CC_DESIGN_APPROVAL ( #236, ( #175 ) ) ;
#16 = CALENDAR_DATE ( 2023, 12, 2 ) ;
#17 = CARTESIAN_POINT ( 'NONE',  ( 5.500000000000000000, 6.735557395310441037E-16, 400.0000000000000000 ) ) ;
#18 = EDGE_LOOP ( 'NONE', ( #39, #211 ) ) ;
#19 = ORIENTED_EDGE ( 'NONE', *, *, #1, .F. ) ;
#20 =( NAMED_UNIT ( * ) SI_UNIT ( $, .STERADIAN. ) SOLID_ANGLE_UNIT ( ) );
#21 =( GEOMETRIC_REPRESENTATION_CONTEXT ( 3 ) GLOBAL_UNCERTAINTY_ASSIGNED_CONTEXT ( ( #8 ) ) GLOBAL_UNIT_ASSIGNED_CONTEXT ( ( #253, #139, #20 ) ) REPRESENTATION_CONTEXT ( 'NONE', 'WORKASPACE' ) );
#22 = DIRECTION ( 'NONE',  ( -1.000000000000000000, 0.000000000000000000, 0.000000000000000000 ) ) ;
#23 = EDGE_LOOP ( 'NONE', ( #116, #109 ) ) ;
#24 = LOCAL_TIME ( 12, 13, 56.00000000000000000, #145 ) ;
#25 = CARTESIAN_POINT ( 'NONE',  ( 0.000000000000000000, 0.000000000000000000, 0.000000000000000000 ) ) ;
#26 = ADVANCED_FACE ( 'NONE', ( #142 ), #29, .F. ) ;
#27 = ADVANCED_FACE ( 'NONE', ( #100 ), #104, .T. ) ;
#28 = FACE_OUTER_BOUND ( 'NONE', #23, .T. ) ;
#29 = PLANE ( 'NONE',  #6 ) ;
#30 = FACE_OUTER_BOUND ( 'NONE', #207, .T. ) ;
#31 = DIRECTION ( 'NONE',  ( 1.000000000000000000, 0.000000000000000000, 0.000000000000000000 ) ) ;
#32 = APPLICATION_PROTOCOL_DEFINITION ( 'international standard', 'config_control_design', 1994, #152 ) ;
#33 = CARTESIAN_POINT ( 'NONE',  ( 8.000000000000000000, 9.797174393178825657E-16, 5.000000000000000000 ) ) ;
#34 = EDGE_CURVE ( 'NONE', #42, #240, #242, .T. ) ;
#35 = CARTESIAN_POINT ( 'NONE',  ( 0.000000000000000000, 0.000000000000000000, 5.000000000000000000 ) ) ;
#36 = COORDINATED_UNIVERSAL_TIME_OFFSET ( 1, 0, .AHEAD. ) ;
#37 = AXIS2_PLACEMENT_3D ( 'NONE', #12, #90, #243 ) ;
#38 = EDGE_CURVE ( 'NONE', #240, #222, #250, .T. ) ;
#39 = ORIENTED_EDGE ( 'NONE', *, *, #53, .T. ) ;
#40 = CARTESIAN_POINT ( 'NONE',  ( 0.000000000000000000, 0.000000000000000000, 5.000000000000000000 ) ) ;
#41 = APPROVAL_ROLE ( '' ) ;
#42 = VERTEX_POINT ( 'NONE', #17 ) ;
#43 = PRODUCT_DEFINITION_FORMATION_WITH_SPECIFIED_SOURCE ( 'LIBOVOLNÝ', '', #80, .NOT_KNOWN. ) ;
#44 = CC_DESIGN_PERSON_AND_ORGANIZATION_ASSIGNMENT ( #83, #48, ( #175 ) ) ;
#45 = CYLINDRICAL_SURFACE ( 'NONE', #235, 5.500000000000000000 ) ;
#46 = ORIENTED_EDGE ( 'NONE', *, *, #34, .F. ) ;
#47 = CLOSED_SHELL ( 'NONE', ( #146, #143, #78, #81, #26, #212, #27 ) ) ;
#48 = PERSON_AND_ORGANIZATION_ROLE ( 'creator' ) ;
#49 = CARTESIAN_POINT ( 'NONE',  ( 8.000000000000000000, 9.797174393178825657E-16, 0.000000000000000000 ) ) ;
#50 = PLANE ( 'NONE',  #126 ) ;
#51 = CARTESIAN_POINT ( 'NONE',  ( 0.000000000000000000, 0.000000000000000000, 0.000000000000000000 ) ) ;
#52 = APPROVAL_STATUS ( 'not_yet_approved' ) ;
#53 = EDGE_CURVE ( 'NONE', #240, #42, #195, .T. ) ;
#54 = LINE ( 'NONE', #73, #101 ) ;
#55 = CARTESIAN_POINT ( 'NONE',  ( 0.000000000000000000, 0.000000000000000000, 400.0000000000000000 ) ) ;
#56 = PERSON ( 'NEURÈENÝ', 'NEURÈENÝ', 'NEURÈENÝ', ('NEURÈENÝ'), ('NEURÈENÝ'), ('NEURÈENÝ') ) ;
#57 = DATE_TIME_ROLE ( 'classification_date' ) ;
#58 = LOCAL_TIME ( 12, 13, 56.00000000000000000, #167 ) ;
#59 = PERSON_AND_ORGANIZATION_ROLE ( 'classification_officer' ) ;
#60 = FACE_BOUND ( 'NONE', #147, .T. ) ;
#61 = ORIENTED_EDGE ( 'NONE', *, *, #171, .F. ) ;
#62 = CIRCLE ( 'NONE', #91, 8.000000000000000000 ) ;
#63 = MANIFOLD_SOLID_BREP ( 'Pøidat vysunutím3', #47 ) ;
#64 = AXIS2_PLACEMENT_3D ( 'NONE', #201, #105, #216 ) ;
#65 = DATE_AND_TIME ( #232, #165 ) ;
#66 = CIRCLE ( 'NONE', #119, 5.500000000000000000 ) ;
#67 = DIRECTION ( 'NONE',  ( 1.000000000000000000, 0.000000000000000000, 0.000000000000000000 ) ) ;
#68 = DIRECTION ( 'NONE',  ( 0.000000000000000000, 0.000000000000000000, 1.000000000000000000 ) ) ;
#69 = DATE_AND_TIME ( #238, #58 ) ;
#70 = DIRECTION ( 'NONE',  ( 0.000000000000000000, 0.000000000000000000, 1.000000000000000000 ) ) ;
#71 = PERSON_AND_ORGANIZATION ( #56, #98 ) ;
#72 = VERTEX_POINT ( 'NONE', #173 ) ;
#73 = CARTESIAN_POINT ( 'NONE',  ( 5.500000000000000000, 6.735557395310441037E-16, 400.0000000000000000 ) ) ;
#74 = CIRCLE ( 'NONE', #210, 5.500000000000000000 ) ;
#75 = VERTEX_POINT ( 'NONE', #249 ) ;
#76 = DIRECTION ( 'NONE',  ( 0.000000000000000000, 0.000000000000000000, 1.000000000000000000 ) ) ;
#77 = VECTOR ( 'NONE', #107, 1000.000000000000000 ) ;
#78 = ADVANCED_FACE ( 'NONE', ( #205 ), #110, .T. ) ;
#79 = CARTESIAN_POINT ( 'NONE',  ( -8.000000000000000000, 0.000000000000000000, 5.000000000000000000 ) ) ;
#80 = PRODUCT ( '94c5', '94c5', '', ( #182 ) ) ;
#81 = ADVANCED_FACE ( 'NONE', ( #60, #28 ), #50, .T. ) ;
#82 = AXIS2_PLACEMENT_3D ( 'NONE', #51, #68, #166 ) ;
#83 = PERSON_AND_ORGANIZATION ( #56, #98 ) ;
#84 = CARTESIAN_POINT ( 'NONE',  ( 0.000000000000000000, 0.000000000000000000, 5.000000000000000000 ) ) ;
#85 = APPROVAL_ROLE ( '' ) ;
#86 = SECURITY_CLASSIFICATION ( '', '', #206 ) ;
#87 = DIRECTION ( 'NONE',  ( 0.000000000000000000, 0.000000000000000000, 1.000000000000000000 ) ) ;
#88 = DATE_AND_TIME ( #103, #24 ) ;
#89 = ORIENTED_EDGE ( 'NONE', *, *, #53, .F. ) ;
#90 = DIRECTION ( 'NONE',  ( 0.000000000000000000, 0.000000000000000000, 1.000000000000000000 ) ) ;
#91 = AXIS2_PLACEMENT_3D ( 'NONE', #200, #9, #67 ) ;
#92 = PERSON_AND_ORGANIZATION ( #56, #98 ) ;
#93 = EDGE_LOOP ( 'NONE', ( #221, #154, #114, #246 ) ) ;
#94 = APPROVAL_DATE_TIME ( #208, #214 ) ;
#95 = PRODUCT_RELATED_PRODUCT_CATEGORY ( 'detail', '', ( #80 ) ) ;
#96 = CIRCLE ( 'NONE', #82, 8.000000000000000000 ) ;
#97 = VECTOR ( 'NONE', #179, 1000.000000000000000 ) ;
#98 = ORGANIZATION ( 'NEURÈENÝ', 'NEURÈENÝ', '' ) ;
#99 = VERTEX_POINT ( 'NONE', #234 ) ;
#100 = FACE_OUTER_BOUND ( 'NONE', #18, .T. ) ;
#101 = VECTOR ( 'NONE', #183, 1000.000000000000000 ) ;
#102 = APPROVAL_ROLE ( '' ) ;
#103 = CALENDAR_DATE ( 2023, 12, 2 ) ;
#104 = PLANE ( 'NONE',  #184 ) ;
#105 = DIRECTION ( 'NONE',  ( -0.000000000000000000, -0.000000000000000000, -1.000000000000000000 ) ) ;
#106 = DIRECTION ( 'NONE',  ( 0.000000000000000000, 0.000000000000000000, 1.000000000000000000 ) ) ;
#107 = DIRECTION ( 'NONE',  ( -0.000000000000000000, -0.000000000000000000, -1.000000000000000000 ) ) ;
#108 = DATE_AND_TIME ( #16, #7 ) ;
#109 = ORIENTED_EDGE ( 'NONE', *, *, #171, .T. ) ;
#110 = CYLINDRICAL_SURFACE ( 'NONE', #181, 8.000000000000000000 ) ;
#111 = PERSON_AND_ORGANIZATION_ROLE ( 'creator' ) ;
#112 = EDGE_CURVE ( 'NONE', #222, #75, #74, .T. ) ;
#113 = CARTESIAN_POINT ( 'NONE',  ( 0.000000000000000000, 0.000000000000000000, 400.0000000000000000 ) ) ;
#114 = ORIENTED_EDGE ( 'NONE', *, *, #193, .T. ) ;
#115 = EDGE_CURVE ( 'NONE', #42, #75, #54, .T. ) ;
#116 = ORIENTED_EDGE ( 'NONE', *, *, #163, .T. ) ;
#117 = DESIGN_CONTEXT ( 'detailed design', #152, 'design' ) ;
#118 = ORIENTED_EDGE ( 'NONE', *, *, #38, .T. ) ;
#119 = AXIS2_PLACEMENT_3D ( 'NONE', #174, #120, #229 ) ;
#120 = DIRECTION ( 'NONE',  ( 0.000000000000000000, 0.000000000000000000, 1.000000000000000000 ) ) ;
#121 = EDGE_CURVE ( 'NONE', #99, #192, #150, .T. ) ;
#122 = APPROVAL_STATUS ( 'not_yet_approved' ) ;
#123 = DIRECTION ( 'NONE',  ( -0.000000000000000000, -0.000000000000000000, -1.000000000000000000 ) ) ;
#124 = DIRECTION ( 'NONE',  ( 0.000000000000000000, 0.000000000000000000, 1.000000000000000000 ) ) ;
#125 = DATE_TIME_ROLE ( 'creation_date' ) ;
#126 = AXIS2_PLACEMENT_3D ( 'NONE', #84, #70, #164 ) ;
#127 = CARTESIAN_POINT ( 'NONE',  ( 0.000000000000000000, 0.000000000000000000, 400.0000000000000000 ) ) ;
#128 = ORIENTED_EDGE ( 'NONE', *, *, #112, .T. ) ;
#129 = CYLINDRICAL_SURFACE ( 'NONE', #64, 5.500000000000000000 ) ;
#130 = EDGE_CURVE ( 'NONE', #192, #72, #62, .T. ) ;
#131 = APPROVAL_STATUS ( 'not_yet_approved' ) ;
#132 = ORIENTED_EDGE ( 'NONE', *, *, #196, .F. ) ;
#133 = CARTESIAN_POINT ( 'NONE',  ( -5.500000000000000000, 0.000000000000000000, 400.0000000000000000 ) ) ;
#134 = ORIENTED_EDGE ( 'NONE', *, *, #38, .F. ) ;
#135 = CALENDAR_DATE ( 2023, 12, 2 ) ;
#136 = ORIENTED_EDGE ( 'NONE', *, *, #115, .F. ) ;
#137 = CC_DESIGN_SECURITY_CLASSIFICATION ( #86, ( #43 ) ) ;
#138 = CARTESIAN_POINT ( 'NONE',  ( -5.500000000000000000, 0.000000000000000000, 5.000000000000000000 ) ) ;
#139 =( NAMED_UNIT ( * ) PLANE_ANGLE_UNIT ( ) SI_UNIT ( $, .RADIAN. ) );
#140 = CC_DESIGN_PERSON_AND_ORGANIZATION_ASSIGNMENT ( #245, #13, ( #43 ) ) ;
#141 = PRODUCT_DEFINITION_SHAPE ( 'NONE', 'NONE',  #175 ) ;
#142 = FACE_OUTER_BOUND ( 'NONE', #191, .T. ) ;
#143 = ADVANCED_FACE ( 'NONE', ( #203 ), #198, .T. ) ;
#144 = CC_DESIGN_PERSON_AND_ORGANIZATION_ASSIGNMENT ( #224, #59, ( #86 ) ) ;
#145 = COORDINATED_UNIVERSAL_TIME_OFFSET ( 1, 0, .AHEAD. ) ;
#146 = ADVANCED_FACE ( 'NONE', ( #30 ), #129, .T. ) ;
#147 = EDGE_LOOP ( 'NONE', ( #217, #132 ) ) ;
#148 = CIRCLE ( 'NONE', #37, 8.000000000000000000 ) ;
#149 = DIRECTION ( 'NONE',  ( 1.000000000000000000, 0.000000000000000000, -0.000000000000000000 ) ) ;
#150 = LINE ( 'NONE', #33, #172 ) ;
#151 = DIRECTION ( 'NONE',  ( -1.000000000000000000, 0.000000000000000000, 0.000000000000000000 ) ) ;
#152 = APPLICATION_CONTEXT ( 'configuration controlled 3d designs of mechanical parts and assemblies' ) ;
#153 = PERSON_AND_ORGANIZATION_ROLE ( 'design_owner' ) ;
#154 = ORIENTED_EDGE ( 'NONE', *, *, #163, .F. ) ;
#155 = DIRECTION ( 'NONE',  ( -0.000000000000000000, -0.000000000000000000, -1.000000000000000000 ) ) ;
#156 = COORDINATED_UNIVERSAL_TIME_OFFSET ( 1, 0, .AHEAD. ) ;
#157 = ORIENTED_EDGE ( 'NONE', *, *, #115, .T. ) ;
#158 = ORIENTED_EDGE ( 'NONE', *, *, #193, .F. ) ;
#159 = CC_DESIGN_APPROVAL ( #214, ( #86 ) ) ;
#160 = CC_DESIGN_DATE_AND_TIME_ASSIGNMENT ( #65, #125, ( #175 ) ) ;
#161 = AXIS2_PLACEMENT_3D ( 'NONE', #219, #124, #239 ) ;
#162 = CC_DESIGN_PERSON_AND_ORGANIZATION_ASSIGNMENT ( #71, #111, ( #43 ) ) ;
#163 = EDGE_CURVE ( 'NONE', #209, #99, #148, .T. ) ;
#164 = DIRECTION ( 'NONE',  ( 1.000000000000000000, 0.000000000000000000, -0.000000000000000000 ) ) ;
#165 = LOCAL_TIME ( 12, 13, 56.00000000000000000, #233 ) ;
#166 = DIRECTION ( 'NONE',  ( 1.000000000000000000, 0.000000000000000000, 0.000000000000000000 ) ) ;
#167 = COORDINATED_UNIVERSAL_TIME_OFFSET ( 1, 0, .AHEAD. ) ;
#168 = ADVANCED_BREP_SHAPE_REPRESENTATION ( '94c5', ( #63, #223 ), #21 ) ;
#169 = CARTESIAN_POINT ( 'NONE',  ( 0.000000000000000000, 0.000000000000000000, 5.000000000000000000 ) ) ;
#170 = DIRECTION ( 'NONE',  ( 1.000000000000000000, 0.000000000000000000, -0.000000000000000000 ) ) ;
#171 = EDGE_CURVE ( 'NONE', #99, #209, #178, .T. ) ;
#172 = VECTOR ( 'NONE', #123, 1000.000000000000000 ) ;
#173 = CARTESIAN_POINT ( 'NONE',  ( -8.000000000000000000, 0.000000000000000000, 0.000000000000000000 ) ) ;
#174 = CARTESIAN_POINT ( 'NONE',  ( 0.000000000000000000, 0.000000000000000000, 5.000000000000000000 ) ) ;
#175 = PRODUCT_DEFINITION ( 'NEZNÁMÝ', '', #43, #117 ) ;
#176 = APPLICATION_PROTOCOL_DEFINITION ( 'international standard', 'config_control_design', 1994, #3 ) ;
#177 = AXIS2_PLACEMENT_3D ( 'NONE', #169, #247, #151 ) ;
#178 = CIRCLE ( 'NONE', #215, 8.000000000000000000 ) ;
#179 = DIRECTION ( 'NONE',  ( -0.000000000000000000, -0.000000000000000000, -1.000000000000000000 ) ) ;
#180 = CARTESIAN_POINT ( 'NONE',  ( 0.000000000000000000, 0.000000000000000000, 0.000000000000000000 ) ) ;
#181 = AXIS2_PLACEMENT_3D ( 'NONE', #40, #155, #226 ) ;
#182 = MECHANICAL_CONTEXT ( 'NONE', #3, 'mechanical' ) ;
#183 = DIRECTION ( 'NONE',  ( -0.000000000000000000, -0.000000000000000000, -1.000000000000000000 ) ) ;
#184 = AXIS2_PLACEMENT_3D ( 'NONE', #127, #11, #170 ) ;
#185 = APPROVAL_PERSON_ORGANIZATION ( #5, #236, #102 ) ;
#186 = DIRECTION ( 'NONE',  ( 1.000000000000000000, 0.000000000000000000, 0.000000000000000000 ) ) ;
#187 = LOCAL_TIME ( 12, 13, 56.00000000000000000, #156 ) ;
#188 = DIRECTION ( 'NONE',  ( 1.000000000000000000, 0.000000000000000000, 0.000000000000000000 ) ) ;
#189 = EDGE_LOOP ( 'NONE', ( #136, #89, #118, #128 ) ) ;
#190 = ORIENTED_EDGE ( 'NONE', *, *, #121, .T. ) ;
#191 = EDGE_LOOP ( 'NONE', ( #19, #202 ) ) ;
#192 = VERTEX_POINT ( 'NONE', #49 ) ;
#193 = EDGE_CURVE ( 'NONE', #209, #72, #252, .T. ) ;
#194 = CC_DESIGN_APPROVAL ( #248, ( #43 ) ) ;
#195 = CIRCLE ( 'NONE', #220, 5.500000000000000000 ) ;
#196 = EDGE_CURVE ( 'NONE', #75, #222, #66, .T. ) ;
#197 = DIRECTION ( 'NONE',  ( 1.000000000000000000, 0.000000000000000000, 0.000000000000000000 ) ) ;
#198 = CYLINDRICAL_SURFACE ( 'NONE', #177, 8.000000000000000000 ) ;
#199 = APPROVAL_DATE_TIME ( #69, #248 ) ;
#200 = CARTESIAN_POINT ( 'NONE',  ( 0.000000000000000000, 0.000000000000000000, 0.000000000000000000 ) ) ;
#201 = CARTESIAN_POINT ( 'NONE',  ( 0.000000000000000000, 0.000000000000000000, 400.0000000000000000 ) ) ;
#202 = ORIENTED_EDGE ( 'NONE', *, *, #130, .F. ) ;
#203 = FACE_OUTER_BOUND ( 'NONE', #237, .T. ) ;
#204 = ORIENTED_EDGE ( 'NONE', *, *, #196, .T. ) ;
#205 = FACE_OUTER_BOUND ( 'NONE', #93, .T. ) ;
#206 = SECURITY_CLASSIFICATION_LEVEL ( 'unclassified' ) ;
#207 = EDGE_LOOP ( 'NONE', ( #46, #157, #204, #134 ) ) ;
#208 = DATE_AND_TIME ( #135, #187 ) ;
#209 = VERTEX_POINT ( 'NONE', #79 ) ;
#210 = AXIS2_PLACEMENT_3D ( 'NONE', #14, #87, #31 ) ;
#211 = ORIENTED_EDGE ( 'NONE', *, *, #34, .T. ) ;
#212 = ADVANCED_FACE ( 'NONE', ( #230 ), #45, .T. ) ;
#213 = ORIENTED_EDGE ( 'NONE', *, *, #130, .T. ) ;
#214 = APPROVAL ( #131, 'NEURÈENÝ' ) ;
#215 = AXIS2_PLACEMENT_3D ( 'NONE', #35, #106, #186 ) ;
#216 = DIRECTION ( 'NONE',  ( -1.000000000000000000, 0.000000000000000000, 0.000000000000000000 ) ) ;
#217 = ORIENTED_EDGE ( 'NONE', *, *, #112, .F. ) ;
#218 = PERSON_AND_ORGANIZATION ( #56, #98 ) ;
#219 = CARTESIAN_POINT ( 'NONE',  ( 0.000000000000000000, 0.000000000000000000, 400.0000000000000000 ) ) ;
#220 = AXIS2_PLACEMENT_3D ( 'NONE', #55, #76, #188 ) ;
#221 = ORIENTED_EDGE ( 'NONE', *, *, #121, .F. ) ;
#222 = VERTEX_POINT ( 'NONE', #138 ) ;
#223 = AXIS2_PLACEMENT_3D ( 'NONE', #180, #254, #197 ) ;
#224 = PERSON_AND_ORGANIZATION ( #56, #98 ) ;
#225 = APPROVAL_PERSON_ORGANIZATION ( #92, #214, #41 ) ;
#226 = DIRECTION ( 'NONE',  ( -1.000000000000000000, 0.000000000000000000, 0.000000000000000000 ) ) ;
#227 = CARTESIAN_POINT ( 'NONE',  ( -8.000000000000000000, 0.000000000000000000, 5.000000000000000000 ) ) ;
#228 = DIRECTION ( 'NONE',  ( -0.000000000000000000, -0.000000000000000000, -1.000000000000000000 ) ) ;
#229 = DIRECTION ( 'NONE',  ( 1.000000000000000000, 0.000000000000000000, 0.000000000000000000 ) ) ;
#230 = FACE_OUTER_BOUND ( 'NONE', #189, .T. ) ;
#231 = CC_DESIGN_PERSON_AND_ORGANIZATION_ASSIGNMENT ( #4, #153, ( #80 ) ) ;
#232 = CALENDAR_DATE ( 2023, 12, 2 ) ;
#233 = COORDINATED_UNIVERSAL_TIME_OFFSET ( 1, 0, .AHEAD. ) ;
#234 = CARTESIAN_POINT ( 'NONE',  ( 8.000000000000000000, 9.797174393178825657E-16, 5.000000000000000000 ) ) ;
#235 = AXIS2_PLACEMENT_3D ( 'NONE', #113, #228, #22 ) ;
#236 = APPROVAL ( #52, 'NEURÈENÝ' ) ;
#237 = EDGE_LOOP ( 'NONE', ( #61, #190, #213, #158 ) ) ;
#238 = CALENDAR_DATE ( 2023, 12, 2 ) ;
#239 = DIRECTION ( 'NONE',  ( 1.000000000000000000, 0.000000000000000000, 0.000000000000000000 ) ) ;
#240 = VERTEX_POINT ( 'NONE', #2 ) ;
#241 = APPROVAL_DATE_TIME ( #88, #236 ) ;
#242 = CIRCLE ( 'NONE', #161, 5.500000000000000000 ) ;
#243 = DIRECTION ( 'NONE',  ( 1.000000000000000000, 0.000000000000000000, 0.000000000000000000 ) ) ;
#244 = APPROVAL_PERSON_ORGANIZATION ( #218, #248, #85 ) ;
#245 = PERSON_AND_ORGANIZATION ( #56, #98 ) ;
#246 = ORIENTED_EDGE ( 'NONE', *, *, #1, .T. ) ;
#247 = DIRECTION ( 'NONE',  ( -0.000000000000000000, -0.000000000000000000, -1.000000000000000000 ) ) ;
#248 = APPROVAL ( #122, 'NEURÈENÝ' ) ;
#249 = CARTESIAN_POINT ( 'NONE',  ( 5.500000000000000000, 6.735557395310441037E-16, 5.000000000000000000 ) ) ;
#250 = LINE ( 'NONE', #133, #77 ) ;
#251 = SHAPE_DEFINITION_REPRESENTATION ( #141, #168 ) ;
#252 = LINE ( 'NONE', #227, #97 ) ;
#253 =( LENGTH_UNIT ( ) NAMED_UNIT ( * ) SI_UNIT ( .MILLI., .METRE. ) );
#254 = DIRECTION ( 'NONE',  ( 0.000000000000000000, 0.000000000000000000, 1.000000000000000000 ) ) ;
#255 = DIRECTION ( 'NONE',  ( 0.000000000000000000, 0.000000000000000000, 1.000000000000000000 ) ) ;
ENDSEC;
END-ISO-10303-21;
