ISO-10303-21;
HEADER;
FILE_DESCRIPTION (( 'STEP AP203' ),
    '1' );
FILE_NAME ('c89c.STEP',
    '2023-02-12T12:48:04',
    ( '' ),
    ( '' ),
    'SwSTEP 2.0',
    'SolidWorks 2019',
    '' );
FILE_SCHEMA (( 'CONFIG_CONTROL_DESIGN' ));
ENDSEC;

DATA;
#1 = SECURITY_CLASSIFICATION ( '', '', #68 ) ;
#2 = FACE_OUTER_BOUND ( 'NONE', #188, .T. ) ;
#3 = FACE_OUTER_BOUND ( 'NONE', #10, .T. ) ;
#4 = VECTOR ( 'NONE', #41, 1000.000000000000000 ) ;
#5 = APPLICATION_CONTEXT ( 'configuration controlled 3d designs of mechanical parts and assemblies' ) ;
#6 = PRODUCT_DEFINITION_FORMATION_WITH_SPECIFIED_SOURCE ( 'LIBOVOLNÝ', '', #62, .NOT_KNOWN. ) ;
#7 = PRODUCT_RELATED_PRODUCT_CATEGORY ( 'detail', '', ( #62 ) ) ;
#8 = DATE_AND_TIME ( #202, #47 ) ;
#9 = CIRCLE ( 'NONE', #182, 1.250000000000000000 ) ;
#10 = EDGE_LOOP ( 'NONE', ( #204, #80 ) ) ;
#11 = CYLINDRICAL_SURFACE ( 'NONE', #24, 1.250000000000000000 ) ;
#12 = ORIENTED_EDGE ( 'NONE', *, *, #140, .T. ) ;
#13 = ADVANCED_FACE ( 'NONE', ( #177 ), #239, .T. ) ;
#14 = CIRCLE ( 'NONE', #147, 2.500000000000000000 ) ;
#15 = PERSON_AND_ORGANIZATION ( #36, #111 ) ;
#16 = CIRCLE ( 'NONE', #166, 2.500000000000000000 ) ;
#17 = DIRECTION ( 'NONE',  ( 0.000000000000000000, 0.000000000000000000, 1.000000000000000000 ) ) ;
#18 = CARTESIAN_POINT ( 'NONE',  ( 0.000000000000000000, 0.000000000000000000, 2.000000000000000000 ) ) ;
#19 = DIRECTION ( 'NONE',  ( 0.000000000000000000, 0.000000000000000000, 1.000000000000000000 ) ) ;
#20 = CARTESIAN_POINT ( 'NONE',  ( 0.000000000000000000, 0.000000000000000000, 0.000000000000000000 ) ) ;
#21 = DIRECTION ( 'NONE',  ( 0.000000000000000000, 0.000000000000000000, 1.000000000000000000 ) ) ;
#22 = AXIS2_PLACEMENT_3D ( 'NONE', #108, #104, #197 ) ;
#23 = EDGE_LOOP ( 'NONE', ( #158, #78, #25, #156 ) ) ;
#24 = AXIS2_PLACEMENT_3D ( 'NONE', #250, #222, #27 ) ;
#25 = ORIENTED_EDGE ( 'NONE', *, *, #209, .T. ) ;
#26 = EDGE_LOOP ( 'NONE', ( #225, #43, #183, #91 ) ) ;
#27 = DIRECTION ( 'NONE',  ( -1.000000000000000000, 0.000000000000000000, 0.000000000000000000 ) ) ;
#28 = ORIENTED_EDGE ( 'NONE', *, *, #107, .F. ) ;
#29 = COORDINATED_UNIVERSAL_TIME_OFFSET ( 1, 0, .AHEAD. ) ;
#30 = APPROVAL_STATUS ( 'not_yet_approved' ) ;
#31 = APPROVAL_DATE_TIME ( #96, #150 ) ;
#32 = VERTEX_POINT ( 'NONE', #171 ) ;
#33 = DIRECTION ( 'NONE',  ( 0.000000000000000000, 0.000000000000000000, 1.000000000000000000 ) ) ;
#34 = DIRECTION ( 'NONE',  ( -1.000000000000000000, 0.000000000000000000, 0.000000000000000000 ) ) ;
#35 = CC_DESIGN_PERSON_AND_ORGANIZATION_ASSIGNMENT ( #126, #196, ( #62 ) ) ;
#36 = PERSON ( 'NEURÈENÝ', 'NEURÈENÝ', 'NEURÈENÝ', ('NEURÈENÝ'), ('NEURÈENÝ'), ('NEURÈENÝ') ) ;
#37 = AXIS2_PLACEMENT_3D ( 'NONE', #20, #33, #73 ) ;
#38 = CARTESIAN_POINT ( 'NONE',  ( 1.250000000000000000, 1.530808498934191571E-16, 500.0000000000000000 ) ) ;
#39 = PERSON_AND_ORGANIZATION ( #36, #111 ) ;
#40 = LINE ( 'NONE', #38, #4 ) ;
#41 = DIRECTION ( 'NONE',  ( -0.000000000000000000, -0.000000000000000000, -1.000000000000000000 ) ) ;
#42 =( LENGTH_UNIT ( ) NAMED_UNIT ( * ) SI_UNIT ( .MILLI., .METRE. ) );
#43 = ORIENTED_EDGE ( 'NONE', *, *, #176, .F. ) ;
#44 = COORDINATED_UNIVERSAL_TIME_OFFSET ( 1, 0, .AHEAD. ) ;
#45 = LINE ( 'NONE', #115, #191 ) ;
#46 = CALENDAR_DATE ( 2023, 12, 2 ) ;
#47 = LOCAL_TIME ( 13, 48, 4.000000000000000000, #113 ) ;
#48 = APPROVAL ( #105, 'NEURÈENÝ' ) ;
#49 = PERSON_AND_ORGANIZATION ( #36, #111 ) ;
#50 = CARTESIAN_POINT ( 'NONE',  ( -2.500000000000000000, 0.000000000000000000, 0.000000000000000000 ) ) ;
#51 = CC_DESIGN_APPROVAL ( #203, ( #1 ) ) ;
#52 = CARTESIAN_POINT ( 'NONE',  ( 1.250000000000000000, 1.530808498934191571E-16, 2.000000000000000000 ) ) ;
#53 = CARTESIAN_POINT ( 'NONE',  ( 0.000000000000000000, 0.000000000000000000, 0.000000000000000000 ) ) ;
#54 = CC_DESIGN_PERSON_AND_ORGANIZATION_ASSIGNMENT ( #159, #57, ( #66 ) ) ;
#55 = DIRECTION ( 'NONE',  ( -0.000000000000000000, -0.000000000000000000, -1.000000000000000000 ) ) ;
#56 = DIRECTION ( 'NONE',  ( 0.000000000000000000, 0.000000000000000000, 1.000000000000000000 ) ) ;
#57 = PERSON_AND_ORGANIZATION_ROLE ( 'creator' ) ;
#58 = ORIENTED_EDGE ( 'NONE', *, *, #134, .F. ) ;
#59 = AXIS2_PLACEMENT_3D ( 'NONE', #236, #169, #229 ) ;
#60 = VERTEX_POINT ( 'NONE', #50 ) ;
#61 = DATE_AND_TIME ( #247, #101 ) ;
#62 = PRODUCT ( 'c89c', 'c89c', '', ( #240 ) ) ;
#63 = VERTEX_POINT ( 'NONE', #52 ) ;
#64 = CALENDAR_DATE ( 2023, 12, 2 ) ;
#65 = VECTOR ( 'NONE', #106, 1000.000000000000000 ) ;
#66 = PRODUCT_DEFINITION ( 'NEZNÁMÝ', '', #6, #232 ) ;
#67 = APPROVAL_STATUS ( 'not_yet_approved' ) ;
#68 = SECURITY_CLASSIFICATION_LEVEL ( 'unclassified' ) ;
#69 = ADVANCED_FACE ( 'NONE', ( #214 ), #124, .T. ) ;
#70 = DIRECTION ( 'NONE',  ( 1.000000000000000000, 0.000000000000000000, 0.000000000000000000 ) ) ;
#71 = DIRECTION ( 'NONE',  ( 0.000000000000000000, 0.000000000000000000, 1.000000000000000000 ) ) ;
#72 = ADVANCED_FACE ( 'NONE', ( #143 ), #100, .T. ) ;
#73 = DIRECTION ( 'NONE',  ( 1.000000000000000000, 0.000000000000000000, -0.000000000000000000 ) ) ;
#74 = AXIS2_PLACEMENT_3D ( 'NONE', #215, #88, #194 ) ;
#75 = CARTESIAN_POINT ( 'NONE',  ( 1.250000000000000000, 1.530808498934191571E-16, 500.0000000000000000 ) ) ;
#76 = EDGE_LOOP ( 'NONE', ( #28, #58 ) ) ;
#77 = CC_DESIGN_PERSON_AND_ORGANIZATION_ASSIGNMENT ( #119, #252, ( #6 ) ) ;
#78 = ORIENTED_EDGE ( 'NONE', *, *, #92, .T. ) ;
#79 = APPROVAL_DATE_TIME ( #8, #48 ) ;
#80 = ORIENTED_EDGE ( 'NONE', *, *, #193, .T. ) ;
#81 = SHAPE_DEFINITION_REPRESENTATION ( #221, #251 ) ;
#82 = COORDINATED_UNIVERSAL_TIME_OFFSET ( 1, 0, .AHEAD. ) ;
#83 = APPLICATION_PROTOCOL_DEFINITION ( 'international standard', 'config_control_design', 1994, #180 ) ;
#84 = DIRECTION ( 'NONE',  ( 1.000000000000000000, 0.000000000000000000, 0.000000000000000000 ) ) ;
#85 = CC_DESIGN_PERSON_AND_ORGANIZATION_ASSIGNMENT ( #49, #142, ( #1 ) ) ;
#86 = CARTESIAN_POINT ( 'NONE',  ( 0.000000000000000000, 0.000000000000000000, 2.000000000000000000 ) ) ;
#87 = DIRECTION ( 'NONE',  ( -1.000000000000000000, 0.000000000000000000, 0.000000000000000000 ) ) ;
#88 = DIRECTION ( 'NONE',  ( 0.000000000000000000, 0.000000000000000000, 1.000000000000000000 ) ) ;
#89 = DIRECTION ( 'NONE',  ( -0.000000000000000000, -0.000000000000000000, -1.000000000000000000 ) ) ;
#90 = CC_DESIGN_APPROVAL ( #48, ( #66 ) ) ;
#91 = ORIENTED_EDGE ( 'NONE', *, *, #107, .T. ) ;
#92 = EDGE_CURVE ( 'NONE', #32, #234, #103, .T. ) ;
#93 = ORIENTED_EDGE ( 'NONE', *, *, #190, .F. ) ;
#94 = VECTOR ( 'NONE', #89, 1000.000000000000000 ) ;
#95 = DATE_AND_TIME ( #46, #167 ) ;
#96 = DATE_AND_TIME ( #64, #131 ) ;
#97 = AXIS2_PLACEMENT_3D ( 'NONE', #53, #218, #224 ) ;
#98 = CC_DESIGN_DATE_AND_TIME_ASSIGNMENT ( #207, #208, ( #1 ) ) ;
#99 = CALENDAR_DATE ( 2023, 12, 2 ) ;
#100 = CYLINDRICAL_SURFACE ( 'NONE', #109, 2.500000000000000000 ) ;
#101 = LOCAL_TIME ( 13, 48, 4.000000000000000000, #44 ) ;
#102 = CARTESIAN_POINT ( 'NONE',  ( 0.000000000000000000, 0.000000000000000000, 2.000000000000000000 ) ) ;
#103 = LINE ( 'NONE', #243, #65 ) ;
#104 = DIRECTION ( 'NONE',  ( 0.000000000000000000, 0.000000000000000000, 1.000000000000000000 ) ) ;
#105 = APPROVAL_STATUS ( 'not_yet_approved' ) ;
#106 = DIRECTION ( 'NONE',  ( -0.000000000000000000, -0.000000000000000000, -1.000000000000000000 ) ) ;
#107 = EDGE_CURVE ( 'NONE', #211, #63, #9, .T. ) ;
#108 = CARTESIAN_POINT ( 'NONE',  ( 0.000000000000000000, 0.000000000000000000, 500.0000000000000000 ) ) ;
#109 = AXIS2_PLACEMENT_3D ( 'NONE', #122, #153, #34 ) ;
#110 = CARTESIAN_POINT ( 'NONE',  ( -1.250000000000000000, 0.000000000000000000, 2.000000000000000000 ) ) ;
#111 = ORGANIZATION ( 'NEURÈENÝ', 'NEURÈENÝ', '' ) ;
#112 = ORIENTED_EDGE ( 'NONE', *, *, #242, .F. ) ;
#113 = COORDINATED_UNIVERSAL_TIME_OFFSET ( 1, 0, .AHEAD. ) ;
#114 =( NAMED_UNIT ( * ) SI_UNIT ( $, .STERADIAN. ) SOLID_ANGLE_UNIT ( ) );
#115 = CARTESIAN_POINT ( 'NONE',  ( -1.250000000000000000, 0.000000000000000000, 500.0000000000000000 ) ) ;
#116 = LOCAL_TIME ( 13, 48, 4.000000000000000000, #29 ) ;
#117 = ADVANCED_FACE ( 'NONE', ( #2 ), #217, .F. ) ;
#118 = PERSON_AND_ORGANIZATION_ROLE ( 'creator' ) ;
#119 = PERSON_AND_ORGANIZATION ( #36, #111 ) ;
#120 = MANIFOLD_SOLID_BREP ( 'Pøidat vysunutím3', #245 ) ;
#121 = CC_DESIGN_PERSON_AND_ORGANIZATION_ASSIGNMENT ( #15, #118, ( #6 ) ) ;
#122 = CARTESIAN_POINT ( 'NONE',  ( 0.000000000000000000, 0.000000000000000000, 2.000000000000000000 ) ) ;
#123 = DIRECTION ( 'NONE',  ( 1.000000000000000000, 0.000000000000000000, 0.000000000000000000 ) ) ;
#124 = PLANE ( 'NONE',  #59 ) ;
#125 = PLANE ( 'NONE',  #74 ) ;
#126 = PERSON_AND_ORGANIZATION ( #36, #111 ) ;
#127 = CARTESIAN_POINT ( 'NONE',  ( -2.500000000000000000, 0.000000000000000000, 2.000000000000000000 ) ) ;
#128 = APPLICATION_PROTOCOL_DEFINITION ( 'international standard', 'config_control_design', 1994, #5 ) ;
#129 = EDGE_CURVE ( 'NONE', #60, #234, #16, .T. ) ;
#130 = DIRECTION ( 'NONE',  ( 1.000000000000000000, 0.000000000000000000, 0.000000000000000000 ) ) ;
#131 = LOCAL_TIME ( 13, 48, 4.000000000000000000, #82 ) ;
#132 = PERSON_AND_ORGANIZATION ( #36, #111 ) ;
#133 = EDGE_LOOP ( 'NONE', ( #135, #93, #12, #244 ) ) ;
#134 = EDGE_CURVE ( 'NONE', #63, #211, #185, .T. ) ;
#135 = ORIENTED_EDGE ( 'NONE', *, *, #92, .F. ) ;
#136 = CC_DESIGN_SECURITY_CLASSIFICATION ( #1, ( #6 ) ) ;
#137 = DATE_TIME_ROLE ( 'creation_date' ) ;
#138 = ORIENTED_EDGE ( 'NONE', *, *, #172, .T. ) ;
#139 = APPROVAL_ROLE ( '' ) ;
#140 = EDGE_CURVE ( 'NONE', #249, #60, #238, .T. ) ;
#141 = APPROVAL_PERSON_ORGANIZATION ( #144, #203, #226 ) ;
#142 = PERSON_AND_ORGANIZATION_ROLE ( 'classification_officer' ) ;
#143 = FACE_OUTER_BOUND ( 'NONE', #133, .T. ) ;
#144 = PERSON_AND_ORGANIZATION ( #36, #111 ) ;
#145 = FACE_OUTER_BOUND ( 'NONE', #246, .T. ) ;
#146 = ADVANCED_FACE ( 'NONE', ( #179, #3 ), #125, .T. ) ;
#147 = AXIS2_PLACEMENT_3D ( 'NONE', #86, #17, #84 ) ;
#148 = DIRECTION ( 'NONE',  ( -1.000000000000000000, 0.000000000000000000, 0.000000000000000000 ) ) ;
#149 = CARTESIAN_POINT ( 'NONE',  ( 0.000000000000000000, 0.000000000000000000, 2.000000000000000000 ) ) ;
#150 = APPROVAL ( #67, 'NEURÈENÝ' ) ;
#151 = CC_DESIGN_DATE_AND_TIME_ASSIGNMENT ( #61, #137, ( #66 ) ) ;
#152 = AXIS2_PLACEMENT_3D ( 'NONE', #102, #21, #195 ) ;
#153 = DIRECTION ( 'NONE',  ( -0.000000000000000000, -0.000000000000000000, -1.000000000000000000 ) ) ;
#154 = CIRCLE ( 'NONE', #97, 2.500000000000000000 ) ;
#155 = VERTEX_POINT ( 'NONE', #75 ) ;
#156 = ORIENTED_EDGE ( 'NONE', *, *, #140, .F. ) ;
#157 =( NAMED_UNIT ( * ) PLANE_ANGLE_UNIT ( ) SI_UNIT ( $, .RADIAN. ) );
#158 = ORIENTED_EDGE ( 'NONE', *, *, #193, .F. ) ;
#159 = PERSON_AND_ORGANIZATION ( #36, #111 ) ;
#160 = CARTESIAN_POINT ( 'NONE',  ( -2.500000000000000000, 0.000000000000000000, 2.000000000000000000 ) ) ;
#161 = CIRCLE ( 'NONE', #253, 1.250000000000000000 ) ;
#162 = ORIENTED_EDGE ( 'NONE', *, *, #129, .F. ) ;
#163 = CARTESIAN_POINT ( 'NONE',  ( 2.500000000000000000, 3.061616997868383141E-16, 0.000000000000000000 ) ) ;
#164 = ORIENTED_EDGE ( 'NONE', *, *, #134, .T. ) ;
#165 = COORDINATED_UNIVERSAL_TIME_OFFSET ( 1, 0, .AHEAD. ) ;
#166 = AXIS2_PLACEMENT_3D ( 'NONE', #241, #71, #130 ) ;
#167 = LOCAL_TIME ( 13, 48, 4.000000000000000000, #165 ) ;
#168 = CARTESIAN_POINT ( 'NONE',  ( 0.000000000000000000, 0.000000000000000000, 0.000000000000000000 ) ) ;
#169 = DIRECTION ( 'NONE',  ( 0.000000000000000000, 0.000000000000000000, 1.000000000000000000 ) ) ;
#170 =( GEOMETRIC_REPRESENTATION_CONTEXT ( 3 ) GLOBAL_UNCERTAINTY_ASSIGNED_CONTEXT ( ( #210 ) ) GLOBAL_UNIT_ASSIGNED_CONTEXT ( ( #42, #157, #114 ) ) REPRESENTATION_CONTEXT ( 'NONE', 'WORKASPACE' ) );
#171 = CARTESIAN_POINT ( 'NONE',  ( 2.500000000000000000, 3.061616997868383141E-16, 2.000000000000000000 ) ) ;
#172 = EDGE_CURVE ( 'NONE', #155, #63, #40, .T. ) ;
#173 = CARTESIAN_POINT ( 'NONE',  ( 0.000000000000000000, 0.000000000000000000, 2.000000000000000000 ) ) ;
#174 = DIRECTION ( 'NONE',  ( 1.000000000000000000, 0.000000000000000000, 0.000000000000000000 ) ) ;
#175 = CARTESIAN_POINT ( 'NONE',  ( 0.000000000000000000, 0.000000000000000000, 500.0000000000000000 ) ) ;
#176 = EDGE_CURVE ( 'NONE', #184, #155, #181, .T. ) ;
#177 = FACE_OUTER_BOUND ( 'NONE', #23, .T. ) ;
#178 = CARTESIAN_POINT ( 'NONE',  ( -1.250000000000000000, 0.000000000000000000, 500.0000000000000000 ) ) ;
#179 = FACE_BOUND ( 'NONE', #76, .T. ) ;
#180 = APPLICATION_CONTEXT ( 'configuration controlled 3d designs of mechanical parts and assemblies' ) ;
#181 = CIRCLE ( 'NONE', #22, 1.250000000000000000 ) ;
#182 = AXIS2_PLACEMENT_3D ( 'NONE', #149, #19, #123 ) ;
#183 = ORIENTED_EDGE ( 'NONE', *, *, #242, .T. ) ;
#184 = VERTEX_POINT ( 'NONE', #178 ) ;
#185 = CIRCLE ( 'NONE', #152, 1.250000000000000000 ) ;
#186 = EDGE_CURVE ( 'NONE', #155, #184, #161, .T. ) ;
#187 = AXIS2_PLACEMENT_3D ( 'NONE', #175, #255, #148 ) ;
#188 = EDGE_LOOP ( 'NONE', ( #162, #248 ) ) ;
#189 = APPROVAL_DATE_TIME ( #95, #203 ) ;
#190 = EDGE_CURVE ( 'NONE', #249, #32, #14, .T. ) ;
#191 = VECTOR ( 'NONE', #205, 1000.000000000000000 ) ;
#192 = AXIS2_PLACEMENT_3D ( 'NONE', #18, #55, #87 ) ;
#193 = EDGE_CURVE ( 'NONE', #32, #249, #212, .T. ) ;
#194 = DIRECTION ( 'NONE',  ( 1.000000000000000000, 0.000000000000000000, -0.000000000000000000 ) ) ;
#195 = DIRECTION ( 'NONE',  ( 1.000000000000000000, 0.000000000000000000, 0.000000000000000000 ) ) ;
#196 = PERSON_AND_ORGANIZATION_ROLE ( 'design_owner' ) ;
#197 = DIRECTION ( 'NONE',  ( 1.000000000000000000, 0.000000000000000000, 0.000000000000000000 ) ) ;
#198 = ADVANCED_FACE ( 'NONE', ( #145 ), #233, .T. ) ;
#199 = ORIENTED_EDGE ( 'NONE', *, *, #186, .T. ) ;
#200 = APPROVAL_PERSON_ORGANIZATION ( #39, #48, #139 ) ;
#201 = ORIENTED_EDGE ( 'NONE', *, *, #176, .T. ) ;
#202 = CALENDAR_DATE ( 2023, 12, 2 ) ;
#203 = APPROVAL ( #30, 'NEURÈENÝ' ) ;
#204 = ORIENTED_EDGE ( 'NONE', *, *, #190, .T. ) ;
#205 = DIRECTION ( 'NONE',  ( -0.000000000000000000, -0.000000000000000000, -1.000000000000000000 ) ) ;
#206 = APPROVAL_ROLE ( '' ) ;
#207 = DATE_AND_TIME ( #99, #116 ) ;
#208 = DATE_TIME_ROLE ( 'classification_date' ) ;
#209 = EDGE_CURVE ( 'NONE', #234, #60, #154, .T. ) ;
#210 = UNCERTAINTY_MEASURE_WITH_UNIT (LENGTH_MEASURE( 1.000000000000000082E-05 ), #42, 'distance_accuracy_value', 'NONE');
#211 = VERTEX_POINT ( 'NONE', #110 ) ;
#212 = CIRCLE ( 'NONE', #235, 2.500000000000000000 ) ;
#213 = CARTESIAN_POINT ( 'NONE',  ( 0.000000000000000000, 0.000000000000000000, 500.0000000000000000 ) ) ;
#214 = FACE_OUTER_BOUND ( 'NONE', #223, .T. ) ;
#215 = CARTESIAN_POINT ( 'NONE',  ( 0.000000000000000000, 0.000000000000000000, 2.000000000000000000 ) ) ;
#216 = DIRECTION ( 'NONE',  ( 1.000000000000000000, 0.000000000000000000, 0.000000000000000000 ) ) ;
#217 = PLANE ( 'NONE',  #37 ) ;
#218 = DIRECTION ( 'NONE',  ( 0.000000000000000000, 0.000000000000000000, 1.000000000000000000 ) ) ;
#219 = ORIENTED_EDGE ( 'NONE', *, *, #186, .F. ) ;
#220 = CC_DESIGN_APPROVAL ( #150, ( #6 ) ) ;
#221 = PRODUCT_DEFINITION_SHAPE ( 'NONE', 'NONE',  #66 ) ;
#222 = DIRECTION ( 'NONE',  ( -0.000000000000000000, -0.000000000000000000, -1.000000000000000000 ) ) ;
#223 = EDGE_LOOP ( 'NONE', ( #201, #199 ) ) ;
#224 = DIRECTION ( 'NONE',  ( 1.000000000000000000, 0.000000000000000000, 0.000000000000000000 ) ) ;
#225 = ORIENTED_EDGE ( 'NONE', *, *, #172, .F. ) ;
#226 = APPROVAL_ROLE ( '' ) ;
#227 = FACE_OUTER_BOUND ( 'NONE', #26, .T. ) ;
#228 = APPROVAL_PERSON_ORGANIZATION ( #132, #150, #206 ) ;
#229 = DIRECTION ( 'NONE',  ( 1.000000000000000000, 0.000000000000000000, -0.000000000000000000 ) ) ;
#230 = AXIS2_PLACEMENT_3D ( 'NONE', #168, #237, #174 ) ;
#231 = ADVANCED_FACE ( 'NONE', ( #227 ), #11, .T. ) ;
#232 = DESIGN_CONTEXT ( 'detailed design', #5, 'design' ) ;
#233 = CYLINDRICAL_SURFACE ( 'NONE', #187, 1.250000000000000000 ) ;
#234 = VERTEX_POINT ( 'NONE', #163 ) ;
#235 = AXIS2_PLACEMENT_3D ( 'NONE', #173, #254, #70 ) ;
#236 = CARTESIAN_POINT ( 'NONE',  ( 0.000000000000000000, 0.000000000000000000, 500.0000000000000000 ) ) ;
#237 = DIRECTION ( 'NONE',  ( 0.000000000000000000, 0.000000000000000000, 1.000000000000000000 ) ) ;
#238 = LINE ( 'NONE', #127, #94 ) ;
#239 = CYLINDRICAL_SURFACE ( 'NONE', #192, 2.500000000000000000 ) ;
#240 = MECHANICAL_CONTEXT ( 'NONE', #180, 'mechanical' ) ;
#241 = CARTESIAN_POINT ( 'NONE',  ( 0.000000000000000000, 0.000000000000000000, 0.000000000000000000 ) ) ;
#242 = EDGE_CURVE ( 'NONE', #184, #211, #45, .T. ) ;
#243 = CARTESIAN_POINT ( 'NONE',  ( 2.500000000000000000, 3.061616997868383141E-16, 2.000000000000000000 ) ) ;
#244 = ORIENTED_EDGE ( 'NONE', *, *, #129, .T. ) ;
#245 = CLOSED_SHELL ( 'NONE', ( #198, #13, #72, #146, #117, #231, #69 ) ) ;
#246 = EDGE_LOOP ( 'NONE', ( #219, #138, #164, #112 ) ) ;
#247 = CALENDAR_DATE ( 2023, 12, 2 ) ;
#248 = ORIENTED_EDGE ( 'NONE', *, *, #209, .F. ) ;
#249 = VERTEX_POINT ( 'NONE', #160 ) ;
#250 = CARTESIAN_POINT ( 'NONE',  ( 0.000000000000000000, 0.000000000000000000, 500.0000000000000000 ) ) ;
#251 = ADVANCED_BREP_SHAPE_REPRESENTATION ( 'c89c', ( #120, #230 ), #170 ) ;
#252 = PERSON_AND_ORGANIZATION_ROLE ( 'design_supplier' ) ;
#253 = AXIS2_PLACEMENT_3D ( 'NONE', #213, #56, #216 ) ;
#254 = DIRECTION ( 'NONE',  ( 0.000000000000000000, 0.000000000000000000, 1.000000000000000000 ) ) ;
#255 = DIRECTION ( 'NONE',  ( -0.000000000000000000, -0.000000000000000000, -1.000000000000000000 ) ) ;
ENDSEC;
END-ISO-10303-21;
