ISO-10303-21;
HEADER;
FILE_DESCRIPTION (( 'STEP AP203' ),
    '1' );
FILE_NAME ('d63b.STEP',
    '2023-02-12T11:55:42',
    ( '' ),
    ( '' ),
    'SwSTEP 2.0',
    'SolidWorks 2019',
    '' );
FILE_SCHEMA (( 'CONFIG_CONTROL_DESIGN' ));
ENDSEC;

DATA;
#1 = CYLINDRICAL_SURFACE ( 'NONE', #66, 3.750000000000000000 ) ;
#2 = PERSON ( 'NEURÈENÝ', 'NEURÈENÝ', 'NEURÈENÝ', ('NEURÈENÝ'), ('NEURÈENÝ'), ('NEURÈENÝ') ) ;
#3 = PERSON_AND_ORGANIZATION ( #2, #131 ) ;
#4 = DIRECTION ( 'NONE',  ( 1.000000000000000000, 0.000000000000000000, -0.000000000000000000 ) ) ;
#5 = PERSON_AND_ORGANIZATION ( #2, #131 ) ;
#6 = EDGE_CURVE ( 'NONE', #125, #79, #170, .T. ) ;
#7 = FACE_BOUND ( 'NONE', #105, .T. ) ;
#8 = APPROVAL_ROLE ( '' ) ;
#9 = PLANE ( 'NONE',  #211 ) ;
#10 = AXIS2_PLACEMENT_3D ( 'NONE', #175, #158, #233 ) ;
#11 = ORIENTED_EDGE ( 'NONE', *, *, #35, .F. ) ;
#12 = LINE ( 'NONE', #31, #116 ) ;
#13 = ORIENTED_EDGE ( 'NONE', *, *, #104, .F. ) ;
#14 = ADVANCED_FACE ( 'NONE', ( #229 ), #126, .T. ) ;
#15 = DIRECTION ( 'NONE',  ( 1.000000000000000000, 0.000000000000000000, 0.000000000000000000 ) ) ;
#16 = DIRECTION ( 'NONE',  ( -0.000000000000000000, -0.000000000000000000, -1.000000000000000000 ) ) ;
#17 = EDGE_LOOP ( 'NONE', ( #62, #163, #46, #150 ) ) ;
#18 = EDGE_CURVE ( 'NONE', #30, #48, #171, .T. ) ;
#19 = CC_DESIGN_PERSON_AND_ORGANIZATION_ASSIGNMENT ( #217, #139, ( #192 ) ) ;
#20 = CIRCLE ( 'NONE', #76, 3.750000000000000000 ) ;
#21 = LOCAL_TIME ( 12, 55, 42.00000000000000000, #218 ) ;
#22 = EDGE_CURVE ( 'NONE', #81, #125, #89, .T. ) ;
#23 = DIRECTION ( 'NONE',  ( 1.000000000000000000, 0.000000000000000000, -0.000000000000000000 ) ) ;
#24 = DIRECTION ( 'NONE',  ( 0.000000000000000000, 0.000000000000000000, 1.000000000000000000 ) ) ;
#25 = DATE_AND_TIME ( #196, #216 ) ;
#26 = APPROVAL_PERSON_ORGANIZATION ( #3, #135, #177 ) ;
#27 = DIRECTION ( 'NONE',  ( -0.000000000000000000, -0.000000000000000000, -1.000000000000000000 ) ) ;
#28 = PERSON_AND_ORGANIZATION_ROLE ( 'design_owner' ) ;
#29 = ORIENTED_EDGE ( 'NONE', *, *, #56, .T. ) ;
#30 = VERTEX_POINT ( 'NONE', #73 ) ;
#31 = CARTESIAN_POINT ( 'NONE',  ( 3.750000000000000000, 4.592425496802572986E-16, 1000.000000000000000 ) ) ;
#32 = ORIENTED_EDGE ( 'NONE', *, *, #95, .F. ) ;
#33 = APPROVAL_DATE_TIME ( #228, #114 ) ;
#34 = VERTEX_POINT ( 'NONE', #160 ) ;
#35 = EDGE_CURVE ( 'NONE', #248, #34, #238, .T. ) ;
#36 = DIRECTION ( 'NONE',  ( 1.000000000000000000, 0.000000000000000000, 0.000000000000000000 ) ) ;
#37 = AXIS2_PLACEMENT_3D ( 'NONE', #190, #93, #239 ) ;
#38 = FACE_OUTER_BOUND ( 'NONE', #245, .T. ) ;
#39 = PLANE ( 'NONE',  #47 ) ;
#40 = SECURITY_CLASSIFICATION_LEVEL ( 'unclassified' ) ;
#41 = CC_DESIGN_DATE_AND_TIME_ASSIGNMENT ( #25, #97, ( #149 ) ) ;
#42 = PERSON_AND_ORGANIZATION_ROLE ( 'creator' ) ;
#43 = CIRCLE ( 'NONE', #255, 3.750000000000000000 ) ;
#44 = DATE_AND_TIME ( #243, #231 ) ;
#45 = DIRECTION ( 'NONE',  ( 1.000000000000000000, 0.000000000000000000, -0.000000000000000000 ) ) ;
#46 = ORIENTED_EDGE ( 'NONE', *, *, #95, .T. ) ;
#47 = AXIS2_PLACEMENT_3D ( 'NONE', #193, #178, #4 ) ;
#48 = VERTEX_POINT ( 'NONE', #242 ) ;
#49 = ORIENTED_EDGE ( 'NONE', *, *, #153, .F. ) ;
#50 = APPROVAL_ROLE ( '' ) ;
#51 = VECTOR ( 'NONE', #134, 1000.000000000000000 ) ;
#52 = CC_DESIGN_PERSON_AND_ORGANIZATION_ASSIGNMENT ( #113, #115, ( #149 ) ) ;
#53 = VECTOR ( 'NONE', #138, 1000.000000000000000 ) ;
#54 = LOCAL_TIME ( 12, 55, 42.00000000000000000, #86 ) ;
#55 = DIRECTION ( 'NONE',  ( -0.000000000000000000, -0.000000000000000000, -1.000000000000000000 ) ) ;
#56 = EDGE_CURVE ( 'NONE', #248, #30, #136, .T. ) ;
#57 = PERSON_AND_ORGANIZATION ( #2, #131 ) ;
#58 = COORDINATED_UNIVERSAL_TIME_OFFSET ( 1, 0, .AHEAD. ) ;
#59 = PRODUCT_DEFINITION ( 'NEZNÁMÝ', '', #192, #133 ) ;
#60 = AXIS2_PLACEMENT_3D ( 'NONE', #202, #127, #186 ) ;
#61 = PERSON_AND_ORGANIZATION ( #2, #131 ) ;
#62 = ORIENTED_EDGE ( 'NONE', *, *, #56, .F. ) ;
#63 = ORIENTED_EDGE ( 'NONE', *, *, #104, .T. ) ;
#64 = ORIENTED_EDGE ( 'NONE', *, *, #22, .F. ) ;
#65 = DIRECTION ( 'NONE',  ( -0.000000000000000000, -0.000000000000000000, -1.000000000000000000 ) ) ;
#66 = AXIS2_PLACEMENT_3D ( 'NONE', #112, #252, #69 ) ;
#67 = EDGE_CURVE ( 'NONE', #48, #34, #129, .T. ) ;
#68 = CARTESIAN_POINT ( 'NONE',  ( -3.750000000000000000, 0.000000000000000000, 1000.000000000000000 ) ) ;
#69 = DIRECTION ( 'NONE',  ( -1.000000000000000000, 0.000000000000000000, 0.000000000000000000 ) ) ;
#70 = DATE_TIME_ROLE ( 'creation_date' ) ;
#71 = CARTESIAN_POINT ( 'NONE',  ( 0.000000000000000000, 0.000000000000000000, 1000.000000000000000 ) ) ;
#72 = DATE_AND_TIME ( #223, #109 ) ;
#73 = CARTESIAN_POINT ( 'NONE',  ( -6.000000000000000888, 0.000000000000000000, 5.000000000000000000 ) ) ;
#74 = PERSON_AND_ORGANIZATION ( #2, #131 ) ;
#75 = APPLICATION_CONTEXT ( 'configuration controlled 3d designs of mechanical parts and assemblies' ) ;
#76 = AXIS2_PLACEMENT_3D ( 'NONE', #189, #88, #36 ) ;
#77 = APPROVAL_DATE_TIME ( #117, #215 ) ;
#78 = PRODUCT_DEFINITION_SHAPE ( 'NONE', 'NONE',  #59 ) ;
#79 = VERTEX_POINT ( 'NONE', #205 ) ;
#80 = SHAPE_DEFINITION_REPRESENTATION ( #78, #124 ) ;
#81 = VERTEX_POINT ( 'NONE', #251 ) ;
#82 = CC_DESIGN_PERSON_AND_ORGANIZATION_ASSIGNMENT ( #156, #42, ( #192 ) ) ;
#83 = EDGE_LOOP ( 'NONE', ( #64, #147, #63, #208 ) ) ;
#84 = AXIS2_PLACEMENT_3D ( 'NONE', #247, #27, #200 ) ;
#85 = DIRECTION ( 'NONE',  ( -1.000000000000000000, 0.000000000000000000, 0.000000000000000000 ) ) ;
#86 = COORDINATED_UNIVERSAL_TIME_OFFSET ( 1, 0, .AHEAD. ) ;
#87 = DIRECTION ( 'NONE',  ( 0.000000000000000000, 0.000000000000000000, 1.000000000000000000 ) ) ;
#88 = DIRECTION ( 'NONE',  ( 0.000000000000000000, 0.000000000000000000, 1.000000000000000000 ) ) ;
#89 = CIRCLE ( 'NONE', #180, 3.750000000000000000 ) ;
#90 = CIRCLE ( 'NONE', #10, 6.000000000000000888 ) ;
#91 = EDGE_CURVE ( 'NONE', #81, #187, #12, .T. ) ;
#92 = CC_DESIGN_APPROVAL ( #135, ( #59 ) ) ;
#93 = DIRECTION ( 'NONE',  ( 0.000000000000000000, 0.000000000000000000, 1.000000000000000000 ) ) ;
#94 = CC_DESIGN_DATE_AND_TIME_ASSIGNMENT ( #44, #70, ( #59 ) ) ;
#95 = EDGE_CURVE ( 'NONE', #34, #48, #169, .T. ) ;
#96 = CARTESIAN_POINT ( 'NONE',  ( 6.000000000000000888, 7.347880794884120722E-16, 5.000000000000000000 ) ) ;
#97 = DATE_TIME_ROLE ( 'classification_date' ) ;
#98 = CALENDAR_DATE ( 2023, 12, 2 ) ;
#99 = PERSON_AND_ORGANIZATION_ROLE ( 'creator' ) ;
#100 = CARTESIAN_POINT ( 'NONE',  ( -3.750000000000000000, 0.000000000000000000, 1000.000000000000000 ) ) ;
#101 = ORIENTED_EDGE ( 'NONE', *, *, #67, .F. ) ;
#102 = DIRECTION ( 'NONE',  ( 0.000000000000000000, 0.000000000000000000, 1.000000000000000000 ) ) ;
#103 = CARTESIAN_POINT ( 'NONE',  ( 0.000000000000000000, 0.000000000000000000, 5.000000000000000000 ) ) ;
#104 = EDGE_CURVE ( 'NONE', #187, #79, #43, .T. ) ;
#105 = EDGE_LOOP ( 'NONE', ( #167, #13 ) ) ;
#106 = DIRECTION ( 'NONE',  ( 0.000000000000000000, 0.000000000000000000, 1.000000000000000000 ) ) ;
#107 = CARTESIAN_POINT ( 'NONE',  ( -6.000000000000000888, 0.000000000000000000, 5.000000000000000000 ) ) ;
#108 = EDGE_CURVE ( 'NONE', #125, #81, #20, .T. ) ;
#109 = LOCAL_TIME ( 12, 55, 42.00000000000000000, #199 ) ;
#110 = CC_DESIGN_PERSON_AND_ORGANIZATION_ASSIGNMENT ( #61, #28, ( #141 ) ) ;
#111 = DIRECTION ( 'NONE',  ( -1.000000000000000000, 0.000000000000000000, 0.000000000000000000 ) ) ;
#112 = CARTESIAN_POINT ( 'NONE',  ( 0.000000000000000000, 0.000000000000000000, 1000.000000000000000 ) ) ;
#113 = PERSON_AND_ORGANIZATION ( #2, #131 ) ;
#114 = APPROVAL ( #166, 'NEURÈENÝ' ) ;
#115 = PERSON_AND_ORGANIZATION_ROLE ( 'classification_officer' ) ;
#116 = VECTOR ( 'NONE', #65, 1000.000000000000000 ) ;
#117 = DATE_AND_TIME ( #98, #21 ) ;
#118 = EDGE_LOOP ( 'NONE', ( #204, #29 ) ) ;
#119 = FACE_OUTER_BOUND ( 'NONE', #185, .T. ) ;
#120 = VECTOR ( 'NONE', #249, 1000.000000000000000 ) ;
#121 = ORIENTED_EDGE ( 'NONE', *, *, #67, .T. ) ;
#122 =( NAMED_UNIT ( * ) PLANE_ANGLE_UNIT ( ) SI_UNIT ( $, .RADIAN. ) );
#123 = AXIS2_PLACEMENT_3D ( 'NONE', #181, #159, #241 ) ;
#124 = ADVANCED_BREP_SHAPE_REPRESENTATION ( 'd63b', ( #232, #37 ), #236 ) ;
#125 = VERTEX_POINT ( 'NONE', #68 ) ;
#126 = CYLINDRICAL_SURFACE ( 'NONE', #157, 6.000000000000000888 ) ;
#127 = DIRECTION ( 'NONE',  ( 0.000000000000000000, 0.000000000000000000, 1.000000000000000000 ) ) ;
#128 = UNCERTAINTY_MEASURE_WITH_UNIT (LENGTH_MEASURE( 1.000000000000000082E-05 ), #221, 'distance_accuracy_value', 'NONE');
#129 = CIRCLE ( 'NONE', #210, 6.000000000000000888 ) ;
#130 = ORIENTED_EDGE ( 'NONE', *, *, #108, .T. ) ;
#131 = ORGANIZATION ( 'NEURÈENÝ', 'NEURÈENÝ', '' ) ;
#132 = DIRECTION ( 'NONE',  ( 1.000000000000000000, 0.000000000000000000, 0.000000000000000000 ) ) ;
#133 = DESIGN_CONTEXT ( 'detailed design', #75, 'design' ) ;
#134 = DIRECTION ( 'NONE',  ( -0.000000000000000000, -0.000000000000000000, -1.000000000000000000 ) ) ;
#135 = APPROVAL ( #179, 'NEURÈENÝ' ) ;
#136 = CIRCLE ( 'NONE', #60, 6.000000000000000888 ) ;
#137 = AXIS2_PLACEMENT_3D ( 'NONE', #253, #55, #111 ) ;
#138 = DIRECTION ( 'NONE',  ( -0.000000000000000000, -0.000000000000000000, -1.000000000000000000 ) ) ;
#139 = PERSON_AND_ORGANIZATION_ROLE ( 'design_supplier' ) ;
#140 = DIRECTION ( 'NONE',  ( 0.000000000000000000, 0.000000000000000000, 1.000000000000000000 ) ) ;
#141 = PRODUCT ( 'd63b', 'd63b', '', ( #220 ) ) ;
#142 = CARTESIAN_POINT ( 'NONE',  ( 0.000000000000000000, 0.000000000000000000, 5.000000000000000000 ) ) ;
#143 = ADVANCED_FACE ( 'NONE', ( #214 ), #1, .T. ) ;
#144 = AXIS2_PLACEMENT_3D ( 'NONE', #244, #140, #23 ) ;
#145 = ORIENTED_EDGE ( 'NONE', *, *, #254, .T. ) ;
#146 = CC_DESIGN_PERSON_AND_ORGANIZATION_ASSIGNMENT ( #57, #99, ( #59 ) ) ;
#147 = ORIENTED_EDGE ( 'NONE', *, *, #91, .T. ) ;
#148 = EDGE_LOOP ( 'NONE', ( #101, #32 ) ) ;
#149 = SECURITY_CLASSIFICATION ( '', '', #40 ) ;
#150 = ORIENTED_EDGE ( 'NONE', *, *, #18, .F. ) ;
#151 = CALENDAR_DATE ( 2023, 12, 2 ) ;
#152 = APPLICATION_CONTEXT ( 'configuration controlled 3d designs of mechanical parts and assemblies' ) ;
#153 = EDGE_CURVE ( 'NONE', #30, #248, #90, .T. ) ;
#154 = ADVANCED_FACE ( 'NONE', ( #38 ), #155, .T. ) ;
#155 = CYLINDRICAL_SURFACE ( 'NONE', #137, 6.000000000000000888 ) ;
#156 = PERSON_AND_ORGANIZATION ( #2, #131 ) ;
#157 = AXIS2_PLACEMENT_3D ( 'NONE', #103, #16, #85 ) ;
#158 = DIRECTION ( 'NONE',  ( 0.000000000000000000, 0.000000000000000000, 1.000000000000000000 ) ) ;
#159 = DIRECTION ( 'NONE',  ( 0.000000000000000000, 0.000000000000000000, 1.000000000000000000 ) ) ;
#160 = CARTESIAN_POINT ( 'NONE',  ( 6.000000000000000888, 7.347880794884120722E-16, 0.000000000000000000 ) ) ;
#161 = APPLICATION_PROTOCOL_DEFINITION ( 'international standard', 'config_control_design', 1994, #75 ) ;
#162 = FACE_OUTER_BOUND ( 'NONE', #118, .T. ) ;
#163 = ORIENTED_EDGE ( 'NONE', *, *, #35, .T. ) ;
#164 = APPROVAL_PERSON_ORGANIZATION ( #74, #114, #50 ) ;
#165 = ORIENTED_EDGE ( 'NONE', *, *, #91, .F. ) ;
#166 = APPROVAL_STATUS ( 'not_yet_approved' ) ;
#167 = ORIENTED_EDGE ( 'NONE', *, *, #254, .F. ) ;
#168 = CARTESIAN_POINT ( 'NONE',  ( 0.000000000000000000, 0.000000000000000000, 0.000000000000000000 ) ) ;
#169 = CIRCLE ( 'NONE', #234, 6.000000000000000888 ) ;
#170 = LINE ( 'NONE', #100, #120 ) ;
#171 = LINE ( 'NONE', #107, #51 ) ;
#172 = DIRECTION ( 'NONE',  ( 1.000000000000000000, 0.000000000000000000, 0.000000000000000000 ) ) ;
#173 = CLOSED_SHELL ( 'NONE', ( #194, #14, #154, #207, #188, #143, #227 ) ) ;
#174 = CARTESIAN_POINT ( 'NONE',  ( 0.000000000000000000, 0.000000000000000000, 0.000000000000000000 ) ) ;
#175 = CARTESIAN_POINT ( 'NONE',  ( 0.000000000000000000, 0.000000000000000000, 5.000000000000000000 ) ) ;
#176 = CC_DESIGN_APPROVAL ( #215, ( #192 ) ) ;
#177 = APPROVAL_ROLE ( '' ) ;
#178 = DIRECTION ( 'NONE',  ( 0.000000000000000000, 0.000000000000000000, 1.000000000000000000 ) ) ;
#179 = APPROVAL_STATUS ( 'not_yet_approved' ) ;
#180 = AXIS2_PLACEMENT_3D ( 'NONE', #71, #24, #182 ) ;
#181 = CARTESIAN_POINT ( 'NONE',  ( 0.000000000000000000, 0.000000000000000000, 5.000000000000000000 ) ) ;
#182 = DIRECTION ( 'NONE',  ( 1.000000000000000000, 0.000000000000000000, 0.000000000000000000 ) ) ;
#183 = CC_DESIGN_APPROVAL ( #114, ( #149 ) ) ;
#184 = ORIENTED_EDGE ( 'NONE', *, *, #108, .F. ) ;
#185 = EDGE_LOOP ( 'NONE', ( #130, #206 ) ) ;
#186 = DIRECTION ( 'NONE',  ( 1.000000000000000000, 0.000000000000000000, 0.000000000000000000 ) ) ;
#187 = VERTEX_POINT ( 'NONE', #191 ) ;
#188 = ADVANCED_FACE ( 'NONE', ( #237 ), #39, .F. ) ;
#189 = CARTESIAN_POINT ( 'NONE',  ( 0.000000000000000000, 0.000000000000000000, 1000.000000000000000 ) ) ;
#190 = CARTESIAN_POINT ( 'NONE',  ( 0.000000000000000000, 0.000000000000000000, 0.000000000000000000 ) ) ;
#191 = CARTESIAN_POINT ( 'NONE',  ( 3.750000000000000000, 4.592425496802572986E-16, 5.000000000000000000 ) ) ;
#192 = PRODUCT_DEFINITION_FORMATION_WITH_SPECIFIED_SOURCE ( 'LIBOVOLNÝ', '', #141, .NOT_KNOWN. ) ;
#193 = CARTESIAN_POINT ( 'NONE',  ( 0.000000000000000000, 0.000000000000000000, 0.000000000000000000 ) ) ;
#194 = ADVANCED_FACE ( 'NONE', ( #209 ), #225, .T. ) ;
#195 = COORDINATED_UNIVERSAL_TIME_OFFSET ( 1, 0, .AHEAD. ) ;
#196 = CALENDAR_DATE ( 2023, 12, 2 ) ;
#197 = DIRECTION ( 'NONE',  ( 0.000000000000000000, 0.000000000000000000, 1.000000000000000000 ) ) ;
#198 = APPROVAL_DATE_TIME ( #72, #135 ) ;
#199 = COORDINATED_UNIVERSAL_TIME_OFFSET ( 1, 0, .AHEAD. ) ;
#200 = DIRECTION ( 'NONE',  ( -1.000000000000000000, 0.000000000000000000, 0.000000000000000000 ) ) ;
#201 = EDGE_LOOP ( 'NONE', ( #165, #184, #226, #145 ) ) ;
#202 = CARTESIAN_POINT ( 'NONE',  ( 0.000000000000000000, 0.000000000000000000, 5.000000000000000000 ) ) ;
#203 = CC_DESIGN_SECURITY_CLASSIFICATION ( #149, ( #192 ) ) ;
#204 = ORIENTED_EDGE ( 'NONE', *, *, #153, .T. ) ;
#205 = CARTESIAN_POINT ( 'NONE',  ( -3.750000000000000000, 0.000000000000000000, 5.000000000000000000 ) ) ;
#206 = ORIENTED_EDGE ( 'NONE', *, *, #22, .T. ) ;
#207 = ADVANCED_FACE ( 'NONE', ( #7, #162 ), #9, .T. ) ;
#208 = ORIENTED_EDGE ( 'NONE', *, *, #6, .F. ) ;
#209 = FACE_OUTER_BOUND ( 'NONE', #83, .T. ) ;
#210 = AXIS2_PLACEMENT_3D ( 'NONE', #174, #87, #172 ) ;
#211 = AXIS2_PLACEMENT_3D ( 'NONE', #142, #197, #45 ) ;
#212 =( NAMED_UNIT ( * ) SI_UNIT ( $, .STERADIAN. ) SOLID_ANGLE_UNIT ( ) );
#213 = CARTESIAN_POINT ( 'NONE',  ( 6.000000000000000888, 7.347880794884120722E-16, 5.000000000000000000 ) ) ;
#214 = FACE_OUTER_BOUND ( 'NONE', #201, .T. ) ;
#215 = APPROVAL ( #246, 'NEURÈENÝ' ) ;
#216 = LOCAL_TIME ( 12, 55, 42.00000000000000000, #195 ) ;
#217 = PERSON_AND_ORGANIZATION ( #2, #131 ) ;
#218 = COORDINATED_UNIVERSAL_TIME_OFFSET ( 1, 0, .AHEAD. ) ;
#219 = PLANE ( 'NONE',  #144 ) ;
#220 = MECHANICAL_CONTEXT ( 'NONE', #152, 'mechanical' ) ;
#221 =( LENGTH_UNIT ( ) NAMED_UNIT ( * ) SI_UNIT ( .MILLI., .METRE. ) );
#222 = APPROVAL_PERSON_ORGANIZATION ( #5, #215, #8 ) ;
#223 = CALENDAR_DATE ( 2023, 12, 2 ) ;
#224 = ORIENTED_EDGE ( 'NONE', *, *, #18, .T. ) ;
#225 = CYLINDRICAL_SURFACE ( 'NONE', #84, 3.750000000000000000 ) ;
#226 = ORIENTED_EDGE ( 'NONE', *, *, #6, .T. ) ;
#227 = ADVANCED_FACE ( 'NONE', ( #119 ), #219, .T. ) ;
#228 = DATE_AND_TIME ( #151, #54 ) ;
#229 = FACE_OUTER_BOUND ( 'NONE', #17, .T. ) ;
#230 = PRODUCT_RELATED_PRODUCT_CATEGORY ( 'detail', '', ( #141 ) ) ;
#231 = LOCAL_TIME ( 12, 55, 42.00000000000000000, #58 ) ;
#232 = MANIFOLD_SOLID_BREP ( 'Pøidat vysunutím3', #173 ) ;
#233 = DIRECTION ( 'NONE',  ( 1.000000000000000000, 0.000000000000000000, 0.000000000000000000 ) ) ;
#234 = AXIS2_PLACEMENT_3D ( 'NONE', #168, #102, #15 ) ;
#235 = APPLICATION_PROTOCOL_DEFINITION ( 'international standard', 'config_control_design', 1994, #152 ) ;
#236 =( GEOMETRIC_REPRESENTATION_CONTEXT ( 3 ) GLOBAL_UNCERTAINTY_ASSIGNED_CONTEXT ( ( #128 ) ) GLOBAL_UNIT_ASSIGNED_CONTEXT ( ( #221, #122, #212 ) ) REPRESENTATION_CONTEXT ( 'NONE', 'WORKASPACE' ) );
#237 = FACE_OUTER_BOUND ( 'NONE', #148, .T. ) ;
#238 = LINE ( 'NONE', #213, #53 ) ;
#239 = DIRECTION ( 'NONE',  ( 1.000000000000000000, 0.000000000000000000, 0.000000000000000000 ) ) ;
#240 = CIRCLE ( 'NONE', #123, 3.750000000000000000 ) ;
#241 = DIRECTION ( 'NONE',  ( 1.000000000000000000, 0.000000000000000000, 0.000000000000000000 ) ) ;
#242 = CARTESIAN_POINT ( 'NONE',  ( -6.000000000000000888, 0.000000000000000000, 0.000000000000000000 ) ) ;
#243 = CALENDAR_DATE ( 2023, 12, 2 ) ;
#244 = CARTESIAN_POINT ( 'NONE',  ( 0.000000000000000000, 0.000000000000000000, 1000.000000000000000 ) ) ;
#245 = EDGE_LOOP ( 'NONE', ( #11, #49, #224, #121 ) ) ;
#246 = APPROVAL_STATUS ( 'not_yet_approved' ) ;
#247 = CARTESIAN_POINT ( 'NONE',  ( 0.000000000000000000, 0.000000000000000000, 1000.000000000000000 ) ) ;
#248 = VERTEX_POINT ( 'NONE', #96 ) ;
#249 = DIRECTION ( 'NONE',  ( -0.000000000000000000, -0.000000000000000000, -1.000000000000000000 ) ) ;
#250 = CARTESIAN_POINT ( 'NONE',  ( 0.000000000000000000, 0.000000000000000000, 5.000000000000000000 ) ) ;
#251 = CARTESIAN_POINT ( 'NONE',  ( 3.750000000000000000, 4.592425496802572986E-16, 1000.000000000000000 ) ) ;
#252 = DIRECTION ( 'NONE',  ( -0.000000000000000000, -0.000000000000000000, -1.000000000000000000 ) ) ;
#253 = CARTESIAN_POINT ( 'NONE',  ( 0.000000000000000000, 0.000000000000000000, 5.000000000000000000 ) ) ;
#254 = EDGE_CURVE ( 'NONE', #79, #187, #240, .T. ) ;
#255 = AXIS2_PLACEMENT_3D ( 'NONE', #250, #106, #132 ) ;
ENDSEC;
END-ISO-10303-21;
