ISO-10303-21;
HEADER;
FILE_DESCRIPTION (( 'STEP AP203' ),
    '1' );
FILE_NAME ('a338.STEP',
    '2023-10-23T07:26:33',
    ( '' ),
    ( '' ),
    'SwSTEP 2.0',
    'SolidWorks 2019',
    '' );
FILE_SCHEMA (( 'CONFIG_CONTROL_DESIGN' ));
ENDSEC;

DATA;
#1 = VERTEX_POINT ( 'NONE', #98 ) ;
#2 = DIRECTION ( 'NONE',  ( 0.000000000000000000, 0.000000000000000000, 1.000000000000000000 ) ) ;
#3 = AXIS2_PLACEMENT_3D ( 'NONE', #180, #139, #66 ) ;
#4 = PRODUCT_DEFINITION_FORMATION_WITH_SPECIFIED_SOURCE ( 'LIBOVOLNÝ', '', #240, .NOT_KNOWN. ) ;
#5 = EDGE_LOOP ( 'NONE', ( #108, #83, #186, #68 ) ) ;
#6 = CARTESIAN_POINT ( 'NONE',  ( 0.000000000000000000, 0.000000000000000000, 0.000000000000000000 ) ) ;
#7 = DIRECTION ( 'NONE',  ( 0.000000000000000000, 0.000000000000000000, 1.000000000000000000 ) ) ;
#8 = DIRECTION ( 'NONE',  ( -1.000000000000000000, 0.000000000000000000, 0.000000000000000000 ) ) ;
#9 = EDGE_CURVE ( 'NONE', #112, #209, #172, .T. ) ;
#10 = EDGE_CURVE ( 'NONE', #112, #215, #202, .T. ) ;
#11 = PLANE ( 'NONE',  #100 ) ;
#12 = AXIS2_PLACEMENT_3D ( 'NONE', #166, #227, #119 ) ;
#13 = CALENDAR_DATE ( 2023, 23, 10 ) ;
#14 = FACE_OUTER_BOUND ( 'NONE', #146, .T. ) ;
#15 = EDGE_LOOP ( 'NONE', ( #71, #137 ) ) ;
#16 = CARTESIAN_POINT ( 'NONE',  ( -4.250000000000000000, 0.000000000000000000, 999.8999999999999773 ) ) ;
#17 = EDGE_LOOP ( 'NONE', ( #89, #188, #22, #157 ) ) ;
#18 = APPROVAL ( #72, 'NEURÈENÝ' ) ;
#19 = ORIENTED_EDGE ( 'NONE', *, *, #116, .F. ) ;
#20 = DATE_AND_TIME ( #204, #26 ) ;
#21 = APPROVAL ( #244, 'NEURÈENÝ' ) ;
#22 = ORIENTED_EDGE ( 'NONE', *, *, #198, .T. ) ;
#23 = COORDINATED_UNIVERSAL_TIME_OFFSET ( 1, 0, .AHEAD. ) ;
#24 = DIRECTION ( 'NONE',  ( 0.000000000000000000, 0.000000000000000000, 1.000000000000000000 ) ) ;
#25 = PERSON_AND_ORGANIZATION ( #110, #162 ) ;
#26 = LOCAL_TIME ( 9, 26, 33.00000000000000000, #23 ) ;
#27 =( NAMED_UNIT ( * ) PLANE_ANGLE_UNIT ( ) SI_UNIT ( $, .RADIAN. ) );
#28 = ORIENTED_EDGE ( 'NONE', *, *, #156, .F. ) ;
#29 = CARTESIAN_POINT ( 'NONE',  ( 0.000000000000000000, 0.000000000000000000, 5.000000000000000000 ) ) ;
#30 = DIRECTION ( 'NONE',  ( 1.000000000000000000, 0.000000000000000000, 0.000000000000000000 ) ) ;
#31 = EDGE_CURVE ( 'NONE', #209, #132, #224, .T. ) ;
#32 = SECURITY_CLASSIFICATION ( '', '', #185 ) ;
#33 = CARTESIAN_POINT ( 'NONE',  ( 0.000000000000000000, 0.000000000000000000, 999.8999999999999773 ) ) ;
#34 = AXIS2_PLACEMENT_3D ( 'NONE', #245, #73, #93 ) ;
#35 = DIRECTION ( 'NONE',  ( 1.000000000000000000, 0.000000000000000000, 0.000000000000000000 ) ) ;
#36 = AXIS2_PLACEMENT_3D ( 'NONE', #164, #143, #243 ) ;
#37 = ORIENTED_EDGE ( 'NONE', *, *, #10, .T. ) ;
#38 = PRODUCT_DEFINITION ( 'NEZNÁMÝ', '', #4, #144 ) ;
#39 = VERTEX_POINT ( 'NONE', #236 ) ;
#40 = PERSON_AND_ORGANIZATION_ROLE ( 'classification_officer' ) ;
#41 = APPROVAL_PERSON_ORGANIZATION ( #182, #18, #247 ) ;
#42 = CC_DESIGN_PERSON_AND_ORGANIZATION_ASSIGNMENT ( #96, #94, ( #4 ) ) ;
#43 = DIRECTION ( 'NONE',  ( 0.000000000000000000, 0.000000000000000000, 1.000000000000000000 ) ) ;
#44 = APPROVAL_DATE_TIME ( #214, #109 ) ;
#45 = EDGE_CURVE ( 'NONE', #215, #132, #196, .T. ) ;
#46 = ORIENTED_EDGE ( 'NONE', *, *, #165, .T. ) ;
#47 = COORDINATED_UNIVERSAL_TIME_OFFSET ( 1, 0, .AHEAD. ) ;
#48 = CC_DESIGN_DATE_AND_TIME_ASSIGNMENT ( #86, #168, ( #38 ) ) ;
#49 = CARTESIAN_POINT ( 'NONE',  ( 7.000000000000000000, 8.572527594031473190E-16, 5.000000000000000000 ) ) ;
#50 = DIRECTION ( 'NONE',  ( 1.000000000000000000, 0.000000000000000000, 0.000000000000000000 ) ) ;
#51 = COORDINATED_UNIVERSAL_TIME_OFFSET ( 1, 0, .AHEAD. ) ;
#52 = CARTESIAN_POINT ( 'NONE',  ( 4.250000000000000000, 5.204748896376249713E-16, 999.8999999999999773 ) ) ;
#53 = AXIS2_PLACEMENT_3D ( 'NONE', #138, #141, #35 ) ;
#54 = DIRECTION ( 'NONE',  ( 0.000000000000000000, 0.000000000000000000, 1.000000000000000000 ) ) ;
#55 = UNCERTAINTY_MEASURE_WITH_UNIT (LENGTH_MEASURE( 1.000000000000000082E-05 ), #216, 'distance_accuracy_value', 'NONE');
#56 = ORIENTED_EDGE ( 'NONE', *, *, #9, .T. ) ;
#57 = COORDINATED_UNIVERSAL_TIME_OFFSET ( 1, 0, .AHEAD. ) ;
#58 = CIRCLE ( 'NONE', #161, 4.250000000000000000 ) ;
#59 = ORIENTED_EDGE ( 'NONE', *, *, #31, .T. ) ;
#60 = APPROVAL_STATUS ( 'not_yet_approved' ) ;
#61 = CC_DESIGN_PERSON_AND_ORGANIZATION_ASSIGNMENT ( #25, #81, ( #38 ) ) ;
#62 = ADVANCED_BREP_SHAPE_REPRESENTATION ( 'a338', ( #118, #145 ), #105 ) ;
#63 = DIRECTION ( 'NONE',  ( 0.000000000000000000, 0.000000000000000000, 1.000000000000000000 ) ) ;
#64 = CYLINDRICAL_SURFACE ( 'NONE', #3, 4.250000000000000000 ) ;
#65 = VECTOR ( 'NONE', #134, 1000.000000000000000 ) ;
#66 = DIRECTION ( 'NONE',  ( -1.000000000000000000, 0.000000000000000000, 0.000000000000000000 ) ) ;
#67 = CC_DESIGN_APPROVAL ( #109, ( #38 ) ) ;
#68 = ORIENTED_EDGE ( 'NONE', *, *, #85, .T. ) ;
#69 = EDGE_CURVE ( 'NONE', #152, #1, #193, .T. ) ;
#70 = DIRECTION ( 'NONE',  ( -0.000000000000000000, -0.000000000000000000, -1.000000000000000000 ) ) ;
#71 = ORIENTED_EDGE ( 'NONE', *, *, #69, .T. ) ;
#72 = APPROVAL_STATUS ( 'not_yet_approved' ) ;
#73 = DIRECTION ( 'NONE',  ( 0.000000000000000000, 0.000000000000000000, 1.000000000000000000 ) ) ;
#74 = CC_DESIGN_DATE_AND_TIME_ASSIGNMENT ( #205, #187, ( #32 ) ) ;
#75 = PERSON_AND_ORGANIZATION ( #110, #162 ) ;
#76 = CARTESIAN_POINT ( 'NONE',  ( -7.000000000000000000, 0.000000000000000000, 5.000000000000000000 ) ) ;
#77 = CARTESIAN_POINT ( 'NONE',  ( 0.000000000000000000, 0.000000000000000000, 0.000000000000000000 ) ) ;
#78 = CC_DESIGN_PERSON_AND_ORGANIZATION_ASSIGNMENT ( #232, #177, ( #240 ) ) ;
#79 = PRODUCT_DEFINITION_SHAPE ( 'NONE', 'NONE',  #38 ) ;
#80 = ADVANCED_FACE ( 'NONE', ( #124 ), #11, .F. ) ;
#81 = PERSON_AND_ORGANIZATION_ROLE ( 'creator' ) ;
#82 = APPLICATION_PROTOCOL_DEFINITION ( 'international standard', 'config_control_design', 1994, #210 ) ;
#83 = ORIENTED_EDGE ( 'NONE', *, *, #69, .F. ) ;
#84 = APPLICATION_PROTOCOL_DEFINITION ( 'international standard', 'config_control_design', 1994, #106 ) ;
#85 = EDGE_CURVE ( 'NONE', #174, #39, #58, .T. ) ;
#86 = DATE_AND_TIME ( #13, #97 ) ;
#87 = LINE ( 'NONE', #16, #251 ) ;
#88 = AXIS2_PLACEMENT_3D ( 'NONE', #136, #43, #117 ) ;
#89 = ORIENTED_EDGE ( 'NONE', *, *, #165, .F. ) ;
#90 = CYLINDRICAL_SURFACE ( 'NONE', #12, 4.250000000000000000 ) ;
#91 = ORIENTED_EDGE ( 'NONE', *, *, #148, .T. ) ;
#92 = DATE_AND_TIME ( #190, #239 ) ;
#93 = DIRECTION ( 'NONE',  ( 1.000000000000000000, 0.000000000000000000, -0.000000000000000000 ) ) ;
#94 = PERSON_AND_ORGANIZATION_ROLE ( 'design_supplier' ) ;
#95 = FACE_BOUND ( 'NONE', #122, .T. ) ;
#96 = PERSON_AND_ORGANIZATION ( #110, #162 ) ;
#97 = LOCAL_TIME ( 9, 26, 33.00000000000000000, #51 ) ;
#98 = CARTESIAN_POINT ( 'NONE',  ( 4.250000000000000000, 5.204748896376249713E-16, 999.8999999999999773 ) ) ;
#99 = APPROVAL_DATE_TIME ( #20, #18 ) ;
#100 = AXIS2_PLACEMENT_3D ( 'NONE', #237, #111, #159 ) ;
#101 = MECHANICAL_CONTEXT ( 'NONE', #106, 'mechanical' ) ;
#102 = ORIENTED_EDGE ( 'NONE', *, *, #198, .F. ) ;
#103 = DIRECTION ( 'NONE',  ( 1.000000000000000000, 0.000000000000000000, 0.000000000000000000 ) ) ;
#104 = DIRECTION ( 'NONE',  ( 1.000000000000000000, 0.000000000000000000, 0.000000000000000000 ) ) ;
#105 =( GEOMETRIC_REPRESENTATION_CONTEXT ( 3 ) GLOBAL_UNCERTAINTY_ASSIGNED_CONTEXT ( ( #55 ) ) GLOBAL_UNIT_ASSIGNED_CONTEXT ( ( #216, #27, #175 ) ) REPRESENTATION_CONTEXT ( 'NONE', 'WORKASPACE' ) );
#106 = APPLICATION_CONTEXT ( 'configuration controlled 3d designs of mechanical parts and assemblies' ) ;
#107 = FACE_OUTER_BOUND ( 'NONE', #5, .T. ) ;
#108 = ORIENTED_EDGE ( 'NONE', *, *, #148, .F. ) ;
#109 = APPROVAL ( #60, 'NEURÈENÝ' ) ;
#110 = PERSON ( 'NEURÈENÝ', 'NEURÈENÝ', 'NEURÈENÝ', ('NEURÈENÝ'), ('NEURÈENÝ'), ('NEURÈENÝ') ) ;
#111 = DIRECTION ( 'NONE',  ( 0.000000000000000000, 0.000000000000000000, 1.000000000000000000 ) ) ;
#112 = VERTEX_POINT ( 'NONE', #199 ) ;
#113 = CARTESIAN_POINT ( 'NONE',  ( 7.000000000000000000, 8.572527594031473190E-16, 0.000000000000000000 ) ) ;
#114 = AXIS2_PLACEMENT_3D ( 'NONE', #77, #212, #103 ) ;
#115 = DIRECTION ( 'NONE',  ( 1.000000000000000000, 0.000000000000000000, -0.000000000000000000 ) ) ;
#116 = EDGE_CURVE ( 'NONE', #39, #174, #222, .T. ) ;
#117 = DIRECTION ( 'NONE',  ( 1.000000000000000000, 0.000000000000000000, 0.000000000000000000 ) ) ;
#118 = MANIFOLD_SOLID_BREP ( 'Pøidat vysunutím3', #241 ) ;
#119 = DIRECTION ( 'NONE',  ( -1.000000000000000000, 0.000000000000000000, 0.000000000000000000 ) ) ;
#120 = CC_DESIGN_PERSON_AND_ORGANIZATION_ASSIGNMENT ( #173, #40, ( #32 ) ) ;
#121 = APPROVAL_ROLE ( '' ) ;
#122 = EDGE_LOOP ( 'NONE', ( #242, #19 ) ) ;
#123 = DIRECTION ( 'NONE',  ( 1.000000000000000000, 0.000000000000000000, 0.000000000000000000 ) ) ;
#124 = FACE_OUTER_BOUND ( 'NONE', #252, .T. ) ;
#125 = CARTESIAN_POINT ( 'NONE',  ( -7.000000000000000000, 0.000000000000000000, 0.000000000000000000 ) ) ;
#126 = AXIS2_PLACEMENT_3D ( 'NONE', #221, #63, #50 ) ;
#127 = ADVANCED_FACE ( 'NONE', ( #107 ), #64, .T. ) ;
#128 = CARTESIAN_POINT ( 'NONE',  ( -4.250000000000000000, 0.000000000000000000, 999.8999999999999773 ) ) ;
#129 = CARTESIAN_POINT ( 'NONE',  ( 0.000000000000000000, 0.000000000000000000, 5.000000000000000000 ) ) ;
#130 = CC_DESIGN_SECURITY_CLASSIFICATION ( #32, ( #4 ) ) ;
#131 = ORIENTED_EDGE ( 'NONE', *, *, #116, .T. ) ;
#132 = VERTEX_POINT ( 'NONE', #113 ) ;
#133 = VECTOR ( 'NONE', #194, 1000.000000000000000 ) ;
#134 = DIRECTION ( 'NONE',  ( -0.000000000000000000, -0.000000000000000000, -1.000000000000000000 ) ) ;
#135 = APPROVAL_PERSON_ORGANIZATION ( #233, #109, #121 ) ;
#136 = CARTESIAN_POINT ( 'NONE',  ( 0.000000000000000000, 0.000000000000000000, 5.000000000000000000 ) ) ;
#137 = ORIENTED_EDGE ( 'NONE', *, *, #156, .T. ) ;
#138 = CARTESIAN_POINT ( 'NONE',  ( 0.000000000000000000, 0.000000000000000000, 999.8999999999999773 ) ) ;
#139 = DIRECTION ( 'NONE',  ( -0.000000000000000000, -0.000000000000000000, -1.000000000000000000 ) ) ;
#140 = ADVANCED_FACE ( 'NONE', ( #218 ), #219, .T. ) ;
#141 = DIRECTION ( 'NONE',  ( 0.000000000000000000, 0.000000000000000000, 1.000000000000000000 ) ) ;
#142 = VECTOR ( 'NONE', #70, 1000.000000000000000 ) ;
#143 = DIRECTION ( 'NONE',  ( -0.000000000000000000, -0.000000000000000000, -1.000000000000000000 ) ) ;
#144 = DESIGN_CONTEXT ( 'detailed design', #210, 'design' ) ;
#145 = AXIS2_PLACEMENT_3D ( 'NONE', #6, #2, #123 ) ;
#146 = EDGE_LOOP ( 'NONE', ( #28, #91, #131, #184 ) ) ;
#147 = DIRECTION ( 'NONE',  ( 1.000000000000000000, 0.000000000000000000, 0.000000000000000000 ) ) ;
#148 = EDGE_CURVE ( 'NONE', #1, #39, #223, .T. ) ;
#149 = CALENDAR_DATE ( 2023, 23, 10 ) ;
#150 = SHAPE_DEFINITION_REPRESENTATION ( #79, #62 ) ;
#151 = CARTESIAN_POINT ( 'NONE',  ( 0.000000000000000000, 0.000000000000000000, 999.8999999999999773 ) ) ;
#152 = VERTEX_POINT ( 'NONE', #128 ) ;
#153 = COORDINATED_UNIVERSAL_TIME_OFFSET ( 1, 0, .AHEAD. ) ;
#154 = APPROVAL_ROLE ( '' ) ;
#155 = LOCAL_TIME ( 9, 26, 33.00000000000000000, #153 ) ;
#156 = EDGE_CURVE ( 'NONE', #1, #152, #238, .T. ) ;
#157 = ORIENTED_EDGE ( 'NONE', *, *, #9, .F. ) ;
#158 = DIRECTION ( 'NONE',  ( -0.000000000000000000, -0.000000000000000000, -1.000000000000000000 ) ) ;
#159 = DIRECTION ( 'NONE',  ( 1.000000000000000000, 0.000000000000000000, -0.000000000000000000 ) ) ;
#160 = CARTESIAN_POINT ( 'NONE',  ( 0.000000000000000000, 0.000000000000000000, 5.000000000000000000 ) ) ;
#161 = AXIS2_PLACEMENT_3D ( 'NONE', #129, #54, #30 ) ;
#162 = ORGANIZATION ( 'NEURÈENÝ', 'NEURÈENÝ', '' ) ;
#163 = AXIS2_PLACEMENT_3D ( 'NONE', #33, #7, #226 ) ;
#164 = CARTESIAN_POINT ( 'NONE',  ( 0.000000000000000000, 0.000000000000000000, 5.000000000000000000 ) ) ;
#165 = EDGE_CURVE ( 'NONE', #215, #112, #217, .T. ) ;
#166 = CARTESIAN_POINT ( 'NONE',  ( 0.000000000000000000, 0.000000000000000000, 999.8999999999999773 ) ) ;
#167 = ORIENTED_EDGE ( 'NONE', *, *, #10, .F. ) ;
#168 = DATE_TIME_ROLE ( 'creation_date' ) ;
#169 = EDGE_LOOP ( 'NONE', ( #207, #167, #56, #59 ) ) ;
#170 = FACE_OUTER_BOUND ( 'NONE', #15, .T. ) ;
#171 = AXIS2_PLACEMENT_3D ( 'NONE', #151, #24, #115 ) ;
#172 = LINE ( 'NONE', #76, #65 ) ;
#173 = PERSON_AND_ORGANIZATION ( #110, #162 ) ;
#174 = VERTEX_POINT ( 'NONE', #183 ) ;
#175 =( NAMED_UNIT ( * ) SI_UNIT ( $, .STERADIAN. ) SOLID_ANGLE_UNIT ( ) );
#176 = AXIS2_PLACEMENT_3D ( 'NONE', #29, #220, #8 ) ;
#177 = PERSON_AND_ORGANIZATION_ROLE ( 'design_owner' ) ;
#178 = CALENDAR_DATE ( 2023, 23, 10 ) ;
#179 = CC_DESIGN_APPROVAL ( #21, ( #32 ) ) ;
#180 = CARTESIAN_POINT ( 'NONE',  ( 0.000000000000000000, 0.000000000000000000, 999.8999999999999773 ) ) ;
#181 = DIRECTION ( 'NONE',  ( 0.000000000000000000, 0.000000000000000000, 1.000000000000000000 ) ) ;
#182 = PERSON_AND_ORGANIZATION ( #110, #162 ) ;
#183 = CARTESIAN_POINT ( 'NONE',  ( -4.250000000000000000, 0.000000000000000000, 5.000000000000000000 ) ) ;
#184 = ORIENTED_EDGE ( 'NONE', *, *, #192, .F. ) ;
#185 = SECURITY_CLASSIFICATION_LEVEL ( 'unclassified' ) ;
#186 = ORIENTED_EDGE ( 'NONE', *, *, #192, .T. ) ;
#187 = DATE_TIME_ROLE ( 'classification_date' ) ;
#188 = ORIENTED_EDGE ( 'NONE', *, *, #45, .T. ) ;
#189 = APPROVAL_PERSON_ORGANIZATION ( #201, #21, #154 ) ;
#190 = CALENDAR_DATE ( 2023, 23, 10 ) ;
#191 = PLANE ( 'NONE',  #34 ) ;
#192 = EDGE_CURVE ( 'NONE', #152, #174, #87, .T. ) ;
#193 = CIRCLE ( 'NONE', #163, 4.250000000000000000 ) ;
#194 = DIRECTION ( 'NONE',  ( -0.000000000000000000, -0.000000000000000000, -1.000000000000000000 ) ) ;
#195 = AXIS2_PLACEMENT_3D ( 'NONE', #160, #197, #104 ) ;
#196 = LINE ( 'NONE', #49, #133 ) ;
#197 = DIRECTION ( 'NONE',  ( 0.000000000000000000, 0.000000000000000000, 1.000000000000000000 ) ) ;
#198 = EDGE_CURVE ( 'NONE', #132, #209, #203, .T. ) ;
#199 = CARTESIAN_POINT ( 'NONE',  ( -7.000000000000000000, 0.000000000000000000, 5.000000000000000000 ) ) ;
#200 = PRODUCT_RELATED_PRODUCT_CATEGORY ( 'detail', '', ( #240 ) ) ;
#201 = PERSON_AND_ORGANIZATION ( #110, #162 ) ;
#202 = CIRCLE ( 'NONE', #88, 7.000000000000000000 ) ;
#203 = CIRCLE ( 'NONE', #126, 7.000000000000000000 ) ;
#204 = CALENDAR_DATE ( 2023, 23, 10 ) ;
#205 = DATE_AND_TIME ( #149, #155 ) ;
#206 = PLANE ( 'NONE',  #171 ) ;
#207 = ORIENTED_EDGE ( 'NONE', *, *, #45, .F. ) ;
#208 = CYLINDRICAL_SURFACE ( 'NONE', #176, 7.000000000000000000 ) ;
#209 = VERTEX_POINT ( 'NONE', #125 ) ;
#210 = APPLICATION_CONTEXT ( 'configuration controlled 3d designs of mechanical parts and assemblies' ) ;
#211 = ADVANCED_FACE ( 'NONE', ( #14 ), #90, .T. ) ;
#212 = DIRECTION ( 'NONE',  ( 0.000000000000000000, 0.000000000000000000, 1.000000000000000000 ) ) ;
#213 = ADVANCED_FACE ( 'NONE', ( #95, #250 ), #191, .T. ) ;
#214 = DATE_AND_TIME ( #178, #231 ) ;
#215 = VERTEX_POINT ( 'NONE', #228 ) ;
#216 =( LENGTH_UNIT ( ) NAMED_UNIT ( * ) SI_UNIT ( .MILLI., .METRE. ) );
#217 = CIRCLE ( 'NONE', #225, 7.000000000000000000 ) ;
#218 = FACE_OUTER_BOUND ( 'NONE', #17, .T. ) ;
#219 = CYLINDRICAL_SURFACE ( 'NONE', #36, 7.000000000000000000 ) ;
#220 = DIRECTION ( 'NONE',  ( -0.000000000000000000, -0.000000000000000000, -1.000000000000000000 ) ) ;
#221 = CARTESIAN_POINT ( 'NONE',  ( 0.000000000000000000, 0.000000000000000000, 0.000000000000000000 ) ) ;
#222 = CIRCLE ( 'NONE', #195, 4.250000000000000000 ) ;
#223 = LINE ( 'NONE', #52, #142 ) ;
#224 = CIRCLE ( 'NONE', #114, 7.000000000000000000 ) ;
#225 = AXIS2_PLACEMENT_3D ( 'NONE', #235, #181, #147 ) ;
#226 = DIRECTION ( 'NONE',  ( 1.000000000000000000, 0.000000000000000000, 0.000000000000000000 ) ) ;
#227 = DIRECTION ( 'NONE',  ( -0.000000000000000000, -0.000000000000000000, -1.000000000000000000 ) ) ;
#228 = CARTESIAN_POINT ( 'NONE',  ( 7.000000000000000000, 8.572527594031473190E-16, 5.000000000000000000 ) ) ;
#229 = ORIENTED_EDGE ( 'NONE', *, *, #31, .F. ) ;
#230 = ADVANCED_FACE ( 'NONE', ( #170 ), #206, .T. ) ;
#231 = LOCAL_TIME ( 9, 26, 33.00000000000000000, #47 ) ;
#232 = PERSON_AND_ORGANIZATION ( #110, #162 ) ;
#233 = PERSON_AND_ORGANIZATION ( #110, #162 ) ;
#234 = CC_DESIGN_APPROVAL ( #18, ( #4 ) ) ;
#235 = CARTESIAN_POINT ( 'NONE',  ( 0.000000000000000000, 0.000000000000000000, 5.000000000000000000 ) ) ;
#236 = CARTESIAN_POINT ( 'NONE',  ( 4.250000000000000000, 5.204748896376249713E-16, 5.000000000000000000 ) ) ;
#237 = CARTESIAN_POINT ( 'NONE',  ( 0.000000000000000000, 0.000000000000000000, 0.000000000000000000 ) ) ;
#238 = CIRCLE ( 'NONE', #53, 4.250000000000000000 ) ;
#239 = LOCAL_TIME ( 9, 26, 33.00000000000000000, #57 ) ;
#240 = PRODUCT ( 'a338', 'a338', '', ( #101 ) ) ;
#241 = CLOSED_SHELL ( 'NONE', ( #211, #140, #248, #213, #80, #127, #230 ) ) ;
#242 = ORIENTED_EDGE ( 'NONE', *, *, #85, .F. ) ;
#243 = DIRECTION ( 'NONE',  ( -1.000000000000000000, 0.000000000000000000, 0.000000000000000000 ) ) ;
#244 = APPROVAL_STATUS ( 'not_yet_approved' ) ;
#245 = CARTESIAN_POINT ( 'NONE',  ( 0.000000000000000000, 0.000000000000000000, 5.000000000000000000 ) ) ;
#246 = EDGE_LOOP ( 'NONE', ( #37, #46 ) ) ;
#247 = APPROVAL_ROLE ( '' ) ;
#248 = ADVANCED_FACE ( 'NONE', ( #255 ), #208, .T. ) ;
#249 = PERSON_AND_ORGANIZATION_ROLE ( 'creator' ) ;
#250 = FACE_OUTER_BOUND ( 'NONE', #246, .T. ) ;
#251 = VECTOR ( 'NONE', #158, 1000.000000000000000 ) ;
#252 = EDGE_LOOP ( 'NONE', ( #229, #102 ) ) ;
#253 = APPROVAL_DATE_TIME ( #92, #21 ) ;
#254 = CC_DESIGN_PERSON_AND_ORGANIZATION_ASSIGNMENT ( #75, #249, ( #4 ) ) ;
#255 = FACE_OUTER_BOUND ( 'NONE', #169, .T. ) ;
ENDSEC;
END-ISO-10303-21;
