ISO-10303-21;
HEADER;
FILE_DESCRIPTION (( 'STEP AP203' ),
    '1' );
FILE_NAME ('93d1.STEP',
    '2023-02-12T11:24:42',
    ( '' ),
    ( '' ),
    'SwSTEP 2.0',
    'SolidWorks 2019',
    '' );
FILE_SCHEMA (( 'CONFIG_CONTROL_DESIGN' ));
ENDSEC;

DATA;
#1 =( LENGTH_UNIT ( ) NAMED_UNIT ( * ) SI_UNIT ( .MILLI., .METRE. ) );
#2 = ORIENTED_EDGE ( 'NONE', *, *, #106, .T. ) ;
#3 = PERSON_AND_ORGANIZATION_ROLE ( 'creator' ) ;
#4 = VERTEX_POINT ( 'NONE', #228 ) ;
#5 = COORDINATED_UNIVERSAL_TIME_OFFSET ( 1, 0, .AHEAD. ) ;
#6 = LOCAL_TIME ( 12, 24, 42.00000000000000000, #38 ) ;
#7 = PERSON_AND_ORGANIZATION_ROLE ( 'design_owner' ) ;
#8 = CALENDAR_DATE ( 2023, 12, 2 ) ;
#9 = VECTOR ( 'NONE', #128, 1000.000000000000000 ) ;
#10 = DIRECTION ( 'NONE',  ( 0.000000000000000000, 0.000000000000000000, 1.000000000000000000 ) ) ;
#11 = CARTESIAN_POINT ( 'NONE',  ( 0.000000000000000000, 0.000000000000000000, 5.000000000000000000 ) ) ;
#12 = CC_DESIGN_SECURITY_CLASSIFICATION ( #223, ( #20 ) ) ;
#13 = CARTESIAN_POINT ( 'NONE',  ( 0.000000000000000000, 0.000000000000000000, 250.0000000000000000 ) ) ;
#14 = LINE ( 'NONE', #179, #93 ) ;
#15 = AXIS2_PLACEMENT_3D ( 'NONE', #225, #124, #41 ) ;
#16 = DIRECTION ( 'NONE',  ( 0.000000000000000000, 0.000000000000000000, 1.000000000000000000 ) ) ;
#17 = CC_DESIGN_PERSON_AND_ORGANIZATION_ASSIGNMENT ( #40, #23, ( #20 ) ) ;
#18 = CARTESIAN_POINT ( 'NONE',  ( 0.000000000000000000, 0.000000000000000000, 5.000000000000000000 ) ) ;
#19 = VERTEX_POINT ( 'NONE', #230 ) ;
#20 = PRODUCT_DEFINITION_FORMATION_WITH_SPECIFIED_SOURCE ( 'LIBOVOLNÝ', '', #183, .NOT_KNOWN. ) ;
#21 = CARTESIAN_POINT ( 'NONE',  ( 0.000000000000000000, 0.000000000000000000, 250.0000000000000000 ) ) ;
#22 = EDGE_LOOP ( 'NONE', ( #94, #221 ) ) ;
#23 = PERSON_AND_ORGANIZATION_ROLE ( 'design_supplier' ) ;
#24 = CALENDAR_DATE ( 2023, 12, 2 ) ;
#25 = DIRECTION ( 'NONE',  ( 0.000000000000000000, 0.000000000000000000, 1.000000000000000000 ) ) ;
#26 = EDGE_CURVE ( 'NONE', #31, #19, #173, .T. ) ;
#27 = PERSON_AND_ORGANIZATION ( #113, #37 ) ;
#28 = ADVANCED_FACE ( 'NONE', ( #166 ), #65, .F. ) ;
#29 = VECTOR ( 'NONE', #212, 1000.000000000000000 ) ;
#30 = DIRECTION ( 'NONE',  ( -0.000000000000000000, -0.000000000000000000, -1.000000000000000000 ) ) ;
#31 = VERTEX_POINT ( 'NONE', #60 ) ;
#32 = CARTESIAN_POINT ( 'NONE',  ( 0.000000000000000000, 0.000000000000000000, 250.0000000000000000 ) ) ;
#33 = CARTESIAN_POINT ( 'NONE',  ( -8.000000000000000000, 0.000000000000000000, 5.000000000000000000 ) ) ;
#34 = DIRECTION ( 'NONE',  ( -1.000000000000000000, 0.000000000000000000, 0.000000000000000000 ) ) ;
#35 = VERTEX_POINT ( 'NONE', #185 ) ;
#36 = DIRECTION ( 'NONE',  ( 1.000000000000000000, 0.000000000000000000, 0.000000000000000000 ) ) ;
#37 = ORGANIZATION ( 'NEURÈENÝ', 'NEURÈENÝ', '' ) ;
#38 = COORDINATED_UNIVERSAL_TIME_OFFSET ( 1, 0, .AHEAD. ) ;
#39 = ORIENTED_EDGE ( 'NONE', *, *, #133, .T. ) ;
#40 = PERSON_AND_ORGANIZATION ( #113, #37 ) ;
#41 = DIRECTION ( 'NONE',  ( 1.000000000000000000, 0.000000000000000000, 0.000000000000000000 ) ) ;
#42 = CIRCLE ( 'NONE', #178, 8.000000000000000000 ) ;
#43 = PRODUCT_RELATED_PRODUCT_CATEGORY ( 'detail', '', ( #183 ) ) ;
#44 = PERSON_AND_ORGANIZATION ( #113, #37 ) ;
#45 = CARTESIAN_POINT ( 'NONE',  ( 8.000000000000000000, 9.797174393178825657E-16, 5.000000000000000000 ) ) ;
#46 = EDGE_CURVE ( 'NONE', #4, #48, #107, .T. ) ;
#47 = ORIENTED_EDGE ( 'NONE', *, *, #222, .F. ) ;
#48 = VERTEX_POINT ( 'NONE', #207 ) ;
#49 = FACE_OUTER_BOUND ( 'NONE', #22, .T. ) ;
#50 = PRODUCT_DEFINITION_SHAPE ( 'NONE', 'NONE',  #190 ) ;
#51 = AXIS2_PLACEMENT_3D ( 'NONE', #100, #209, #229 ) ;
#52 = ORIENTED_EDGE ( 'NONE', *, *, #26, .T. ) ;
#53 = DIRECTION ( 'NONE',  ( -0.000000000000000000, -0.000000000000000000, -1.000000000000000000 ) ) ;
#54 = EDGE_CURVE ( 'NONE', #35, #237, #163, .T. ) ;
#55 = AXIS2_PLACEMENT_3D ( 'NONE', #11, #10, #172 ) ;
#56 = LINE ( 'NONE', #251, #66 ) ;
#57 = ORIENTED_EDGE ( 'NONE', *, *, #222, .T. ) ;
#58 = EDGE_LOOP ( 'NONE', ( #142, #187 ) ) ;
#59 = PERSON_AND_ORGANIZATION ( #113, #37 ) ;
#60 = CARTESIAN_POINT ( 'NONE',  ( 8.000000000000000000, 9.797174393178825657E-16, 0.000000000000000000 ) ) ;
#61 = CC_DESIGN_PERSON_AND_ORGANIZATION_ASSIGNMENT ( #120, #64, ( #20 ) ) ;
#62 = PERSON_AND_ORGANIZATION ( #113, #37 ) ;
#63 = ADVANCED_BREP_SHAPE_REPRESENTATION ( '93d1', ( #102, #232 ), #205 ) ;
#64 = PERSON_AND_ORGANIZATION_ROLE ( 'creator' ) ;
#65 = PLANE ( 'NONE',  #137 ) ;
#66 = VECTOR ( 'NONE', #114, 1000.000000000000000 ) ;
#67 = ORIENTED_EDGE ( 'NONE', *, *, #175, .T. ) ;
#68 = APPROVAL_PERSON_ORGANIZATION ( #62, #95, #101 ) ;
#69 = CYLINDRICAL_SURFACE ( 'NONE', #127, 5.100000000000001421 ) ;
#70 = EDGE_CURVE ( 'NONE', #84, #48, #233, .T. ) ;
#71 =( NAMED_UNIT ( * ) PLANE_ANGLE_UNIT ( ) SI_UNIT ( $, .RADIAN. ) );
#72 = AXIS2_PLACEMENT_3D ( 'NONE', #21, #197, #201 ) ;
#73 = FACE_OUTER_BOUND ( 'NONE', #156, .T. ) ;
#74 = COORDINATED_UNIVERSAL_TIME_OFFSET ( 1, 0, .AHEAD. ) ;
#75 = CALENDAR_DATE ( 2023, 12, 2 ) ;
#76 = AXIS2_PLACEMENT_3D ( 'NONE', #220, #91, #36 ) ;
#77 = APPROVAL_STATUS ( 'not_yet_approved' ) ;
#78 = ORIENTED_EDGE ( 'NONE', *, *, #106, .F. ) ;
#79 = COORDINATED_UNIVERSAL_TIME_OFFSET ( 1, 0, .AHEAD. ) ;
#80 = CARTESIAN_POINT ( 'NONE',  ( 0.000000000000000000, 0.000000000000000000, 5.000000000000000000 ) ) ;
#81 = DATE_AND_TIME ( #75, #6 ) ;
#82 = AXIS2_PLACEMENT_3D ( 'NONE', #80, #88, #214 ) ;
#83 = CARTESIAN_POINT ( 'NONE',  ( -5.100000000000001421, 0.000000000000000000, 250.0000000000000000 ) ) ;
#84 = VERTEX_POINT ( 'NONE', #231 ) ;
#85 = AXIS2_PLACEMENT_3D ( 'NONE', #18, #53, #158 ) ;
#86 = CC_DESIGN_DATE_AND_TIME_ASSIGNMENT ( #150, #147, ( #223 ) ) ;
#87 = EDGE_LOOP ( 'NONE', ( #180, #235 ) ) ;
#88 = DIRECTION ( 'NONE',  ( 0.000000000000000000, 0.000000000000000000, 1.000000000000000000 ) ) ;
#89 = LINE ( 'NONE', #45, #29 ) ;
#90 = ADVANCED_FACE ( 'NONE', ( #126 ), #132, .T. ) ;
#91 = DIRECTION ( 'NONE',  ( 0.000000000000000000, 0.000000000000000000, 1.000000000000000000 ) ) ;
#92 = DIRECTION ( 'NONE',  ( -1.000000000000000000, 0.000000000000000000, 0.000000000000000000 ) ) ;
#93 = VECTOR ( 'NONE', #117, 1000.000000000000000 ) ;
#94 = ORIENTED_EDGE ( 'NONE', *, *, #122, .T. ) ;
#95 = APPROVAL ( #241, 'NEURÈENÝ' ) ;
#96 = CARTESIAN_POINT ( 'NONE',  ( 0.000000000000000000, 0.000000000000000000, 5.000000000000000000 ) ) ;
#97 = SECURITY_CLASSIFICATION_LEVEL ( 'unclassified' ) ;
#98 = VERTEX_POINT ( 'NONE', #192 ) ;
#99 = APPROVAL_STATUS ( 'not_yet_approved' ) ;
#100 = CARTESIAN_POINT ( 'NONE',  ( 0.000000000000000000, 0.000000000000000000, 0.000000000000000000 ) ) ;
#101 = APPROVAL_ROLE ( '' ) ;
#102 = MANIFOLD_SOLID_BREP ( 'Pøidat vysunutím3', #103 ) ;
#103 = CLOSED_SHELL ( 'NONE', ( #90, #211, #171, #116, #28, #218, #129 ) ) ;
#104 = FACE_BOUND ( 'NONE', #87, .T. ) ;
#105 = PLANE ( 'NONE',  #254 ) ;
#106 = EDGE_CURVE ( 'NONE', #35, #31, #89, .T. ) ;
#107 = CIRCLE ( 'NONE', #15, 5.100000000000001421 ) ;
#108 = EDGE_LOOP ( 'NONE', ( #134, #2, #52, #47 ) ) ;
#109 = DIRECTION ( 'NONE',  ( -1.000000000000000000, 0.000000000000000000, 0.000000000000000000 ) ) ;
#110 = EDGE_LOOP ( 'NONE', ( #188, #115, #234, #217 ) ) ;
#111 = CYLINDRICAL_SURFACE ( 'NONE', #85, 8.000000000000000000 ) ;
#112 = APPROVAL_PERSON_ORGANIZATION ( #204, #196, #224 ) ;
#113 = PERSON ( 'NEURÈENÝ', 'NEURÈENÝ', 'NEURÈENÝ', ('NEURÈENÝ'), ('NEURÈENÝ'), ('NEURÈENÝ') ) ;
#114 = DIRECTION ( 'NONE',  ( -0.000000000000000000, -0.000000000000000000, -1.000000000000000000 ) ) ;
#115 = ORIENTED_EDGE ( 'NONE', *, *, #181, .T. ) ;
#116 = ADVANCED_FACE ( 'NONE', ( #104, #49 ), #152, .T. ) ;
#117 = DIRECTION ( 'NONE',  ( -0.000000000000000000, -0.000000000000000000, -1.000000000000000000 ) ) ;
#118 = APPROVAL_PERSON_ORGANIZATION ( #27, #151, #169 ) ;
#119 = ORIENTED_EDGE ( 'NONE', *, *, #70, .T. ) ;
#120 = PERSON_AND_ORGANIZATION ( #113, #37 ) ;
#121 = DIRECTION ( 'NONE',  ( 0.000000000000000000, 0.000000000000000000, 1.000000000000000000 ) ) ;
#122 = EDGE_CURVE ( 'NONE', #237, #35, #42, .T. ) ;
#123 = CARTESIAN_POINT ( 'NONE',  ( 0.000000000000000000, 0.000000000000000000, 0.000000000000000000 ) ) ;
#124 = DIRECTION ( 'NONE',  ( 0.000000000000000000, 0.000000000000000000, 1.000000000000000000 ) ) ;
#125 = LOCAL_TIME ( 12, 24, 42.00000000000000000, #74 ) ;
#126 = FACE_OUTER_BOUND ( 'NONE', #110, .T. ) ;
#127 = AXIS2_PLACEMENT_3D ( 'NONE', #182, #253, #92 ) ;
#128 = DIRECTION ( 'NONE',  ( -0.000000000000000000, -0.000000000000000000, -1.000000000000000000 ) ) ;
#129 = ADVANCED_FACE ( 'NONE', ( #248 ), #105, .T. ) ;
#130 = DIRECTION ( 'NONE',  ( 0.000000000000000000, 0.000000000000000000, 1.000000000000000000 ) ) ;
#131 = CC_DESIGN_APPROVAL ( #196, ( #190 ) ) ;
#132 = CYLINDRICAL_SURFACE ( 'NONE', #194, 5.100000000000001421 ) ;
#133 = EDGE_CURVE ( 'NONE', #19, #31, #157, .T. ) ;
#134 = ORIENTED_EDGE ( 'NONE', *, *, #54, .F. ) ;
#135 = APPLICATION_PROTOCOL_DEFINITION ( 'international standard', 'config_control_design', 1994, #195 ) ;
#136 = DIRECTION ( 'NONE',  ( 0.000000000000000000, 0.000000000000000000, 1.000000000000000000 ) ) ;
#137 = AXIS2_PLACEMENT_3D ( 'NONE', #146, #121, #244 ) ;
#138 = DIRECTION ( 'NONE',  ( 1.000000000000000000, 0.000000000000000000, 0.000000000000000000 ) ) ;
#139 = CC_DESIGN_PERSON_AND_ORGANIZATION_ASSIGNMENT ( #44, #184, ( #223 ) ) ;
#140 = CARTESIAN_POINT ( 'NONE',  ( 0.000000000000000000, 0.000000000000000000, 5.000000000000000000 ) ) ;
#141 = DIRECTION ( 'NONE',  ( 1.000000000000000000, 0.000000000000000000, -0.000000000000000000 ) ) ;
#142 = ORIENTED_EDGE ( 'NONE', *, *, #133, .F. ) ;
#143 = AXIS2_PLACEMENT_3D ( 'NONE', #32, #16, #138 ) ;
#144 = SHAPE_DEFINITION_REPRESENTATION ( #50, #63 ) ;
#145 = EDGE_CURVE ( 'NONE', #98, #84, #246, .T. ) ;
#146 = CARTESIAN_POINT ( 'NONE',  ( 0.000000000000000000, 0.000000000000000000, 0.000000000000000000 ) ) ;
#147 = DATE_TIME_ROLE ( 'classification_date' ) ;
#148 = DIRECTION ( 'NONE',  ( 1.000000000000000000, 0.000000000000000000, 0.000000000000000000 ) ) ;
#149 = LOCAL_TIME ( 12, 24, 42.00000000000000000, #5 ) ;
#150 = DATE_AND_TIME ( #165, #149 ) ;
#151 = APPROVAL ( #77, 'NEURÈENÝ' ) ;
#152 = PLANE ( 'NONE',  #55 ) ;
#153 = CC_DESIGN_DATE_AND_TIME_ASSIGNMENT ( #81, #186, ( #190 ) ) ;
#154 = CARTESIAN_POINT ( 'NONE',  ( 0.000000000000000000, 0.000000000000000000, 5.000000000000000000 ) ) ;
#155 = CARTESIAN_POINT ( 'NONE',  ( 0.000000000000000000, 0.000000000000000000, 250.0000000000000000 ) ) ;
#156 = EDGE_LOOP ( 'NONE', ( #191, #174, #119, #162 ) ) ;
#157 = CIRCLE ( 'NONE', #76, 8.000000000000000000 ) ;
#158 = DIRECTION ( 'NONE',  ( -1.000000000000000000, 0.000000000000000000, 0.000000000000000000 ) ) ;
#159 = DESIGN_CONTEXT ( 'detailed design', #226, 'design' ) ;
#160 = FACE_OUTER_BOUND ( 'NONE', #108, .T. ) ;
#161 = FACE_OUTER_BOUND ( 'NONE', #199, .T. ) ;
#162 = ORIENTED_EDGE ( 'NONE', *, *, #168, .T. ) ;
#163 = CIRCLE ( 'NONE', #82, 8.000000000000000000 ) ;
#164 = APPLICATION_PROTOCOL_DEFINITION ( 'international standard', 'config_control_design', 1994, #226 ) ;
#165 = CALENDAR_DATE ( 2023, 12, 2 ) ;
#166 = FACE_OUTER_BOUND ( 'NONE', #58, .T. ) ;
#167 = DATE_AND_TIME ( #24, #176 ) ;
#168 = EDGE_CURVE ( 'NONE', #48, #4, #170, .T. ) ;
#169 = APPROVAL_ROLE ( '' ) ;
#170 = CIRCLE ( 'NONE', #215, 5.100000000000001421 ) ;
#171 = ADVANCED_FACE ( 'NONE', ( #161 ), #198, .T. ) ;
#172 = DIRECTION ( 'NONE',  ( 1.000000000000000000, 0.000000000000000000, -0.000000000000000000 ) ) ;
#173 = CIRCLE ( 'NONE', #51, 8.000000000000000000 ) ;
#174 = ORIENTED_EDGE ( 'NONE', *, *, #175, .F. ) ;
#175 = EDGE_CURVE ( 'NONE', #84, #98, #249, .T. ) ;
#176 = LOCAL_TIME ( 12, 24, 42.00000000000000000, #79 ) ;
#177 = DIRECTION ( 'NONE',  ( 0.000000000000000000, 0.000000000000000000, 1.000000000000000000 ) ) ;
#178 = AXIS2_PLACEMENT_3D ( 'NONE', #154, #130, #213 ) ;
#179 = CARTESIAN_POINT ( 'NONE',  ( -8.000000000000000000, 0.000000000000000000, 5.000000000000000000 ) ) ;
#180 = ORIENTED_EDGE ( 'NONE', *, *, #168, .F. ) ;
#181 = EDGE_CURVE ( 'NONE', #98, #4, #56, .T. ) ;
#182 = CARTESIAN_POINT ( 'NONE',  ( 0.000000000000000000, 0.000000000000000000, 250.0000000000000000 ) ) ;
#183 = PRODUCT ( '93d1', '93d1', '', ( #210 ) ) ;
#184 = PERSON_AND_ORGANIZATION_ROLE ( 'classification_officer' ) ;
#185 = CARTESIAN_POINT ( 'NONE',  ( 8.000000000000000000, 9.797174393178825657E-16, 5.000000000000000000 ) ) ;
#186 = DATE_TIME_ROLE ( 'creation_date' ) ;
#187 = ORIENTED_EDGE ( 'NONE', *, *, #26, .F. ) ;
#188 = ORIENTED_EDGE ( 'NONE', *, *, #145, .F. ) ;
#189 = LOCAL_TIME ( 12, 24, 42.00000000000000000, #243 ) ;
#190 = PRODUCT_DEFINITION ( 'NEZNÁMÝ', '', #20, #159 ) ;
#191 = ORIENTED_EDGE ( 'NONE', *, *, #181, .F. ) ;
#192 = CARTESIAN_POINT ( 'NONE',  ( 5.100000000000001421, 6.245698675651502811E-16, 250.0000000000000000 ) ) ;
#193 = DIRECTION ( 'NONE',  ( -0.000000000000000000, -0.000000000000000000, -1.000000000000000000 ) ) ;
#194 = AXIS2_PLACEMENT_3D ( 'NONE', #155, #30, #109 ) ;
#195 = APPLICATION_CONTEXT ( 'configuration controlled 3d designs of mechanical parts and assemblies' ) ;
#196 = APPROVAL ( #99, 'NEURÈENÝ' ) ;
#197 = DIRECTION ( 'NONE',  ( 0.000000000000000000, 0.000000000000000000, 1.000000000000000000 ) ) ;
#198 = CYLINDRICAL_SURFACE ( 'NONE', #240, 8.000000000000000000 ) ;
#199 = EDGE_LOOP ( 'NONE', ( #78, #200, #57, #39 ) ) ;
#200 = ORIENTED_EDGE ( 'NONE', *, *, #122, .F. ) ;
#201 = DIRECTION ( 'NONE',  ( 1.000000000000000000, 0.000000000000000000, 0.000000000000000000 ) ) ;
#202 = PERSON_AND_ORGANIZATION ( #113, #37 ) ;
#203 = ORIENTED_EDGE ( 'NONE', *, *, #145, .T. ) ;
#204 = PERSON_AND_ORGANIZATION ( #113, #37 ) ;
#205 =( GEOMETRIC_REPRESENTATION_CONTEXT ( 3 ) GLOBAL_UNCERTAINTY_ASSIGNED_CONTEXT ( ( #216 ) ) GLOBAL_UNIT_ASSIGNED_CONTEXT ( ( #1, #71, #219 ) ) REPRESENTATION_CONTEXT ( 'NONE', 'WORKASPACE' ) );
#206 = CALENDAR_DATE ( 2023, 12, 2 ) ;
#207 = CARTESIAN_POINT ( 'NONE',  ( -5.100000000000001421, 0.000000000000000000, 5.000000000000000000 ) ) ;
#208 = DATE_AND_TIME ( #8, #189 ) ;
#209 = DIRECTION ( 'NONE',  ( 0.000000000000000000, 0.000000000000000000, 1.000000000000000000 ) ) ;
#210 = MECHANICAL_CONTEXT ( 'NONE', #195, 'mechanical' ) ;
#211 = ADVANCED_FACE ( 'NONE', ( #160 ), #111, .T. ) ;
#212 = DIRECTION ( 'NONE',  ( -0.000000000000000000, -0.000000000000000000, -1.000000000000000000 ) ) ;
#213 = DIRECTION ( 'NONE',  ( 1.000000000000000000, 0.000000000000000000, 0.000000000000000000 ) ) ;
#214 = DIRECTION ( 'NONE',  ( 1.000000000000000000, 0.000000000000000000, 0.000000000000000000 ) ) ;
#215 = AXIS2_PLACEMENT_3D ( 'NONE', #140, #136, #252 ) ;
#216 = UNCERTAINTY_MEASURE_WITH_UNIT (LENGTH_MEASURE( 1.000000000000000082E-05 ), #1, 'distance_accuracy_value', 'NONE');
#217 = ORIENTED_EDGE ( 'NONE', *, *, #70, .F. ) ;
#218 = ADVANCED_FACE ( 'NONE', ( #73 ), #69, .T. ) ;
#219 =( NAMED_UNIT ( * ) SI_UNIT ( $, .STERADIAN. ) SOLID_ANGLE_UNIT ( ) );
#220 = CARTESIAN_POINT ( 'NONE',  ( 0.000000000000000000, 0.000000000000000000, 0.000000000000000000 ) ) ;
#221 = ORIENTED_EDGE ( 'NONE', *, *, #54, .T. ) ;
#222 = EDGE_CURVE ( 'NONE', #237, #19, #14, .T. ) ;
#223 = SECURITY_CLASSIFICATION ( '', '', #97 ) ;
#224 = APPROVAL_ROLE ( '' ) ;
#225 = CARTESIAN_POINT ( 'NONE',  ( 0.000000000000000000, 0.000000000000000000, 5.000000000000000000 ) ) ;
#226 = APPLICATION_CONTEXT ( 'configuration controlled 3d designs of mechanical parts and assemblies' ) ;
#227 = DATE_AND_TIME ( #206, #125 ) ;
#228 = CARTESIAN_POINT ( 'NONE',  ( 5.100000000000001421, 6.245698675651502811E-16, 5.000000000000000000 ) ) ;
#229 = DIRECTION ( 'NONE',  ( 1.000000000000000000, 0.000000000000000000, 0.000000000000000000 ) ) ;
#230 = CARTESIAN_POINT ( 'NONE',  ( -8.000000000000000000, 0.000000000000000000, 0.000000000000000000 ) ) ;
#231 = CARTESIAN_POINT ( 'NONE',  ( -5.100000000000001421, 0.000000000000000000, 250.0000000000000000 ) ) ;
#232 = AXIS2_PLACEMENT_3D ( 'NONE', #123, #25, #148 ) ;
#233 = LINE ( 'NONE', #83, #9 ) ;
#234 = ORIENTED_EDGE ( 'NONE', *, *, #46, .T. ) ;
#235 = ORIENTED_EDGE ( 'NONE', *, *, #46, .F. ) ;
#236 = CC_DESIGN_APPROVAL ( #151, ( #20 ) ) ;
#237 = VERTEX_POINT ( 'NONE', #33 ) ;
#238 = APPROVAL_DATE_TIME ( #227, #95 ) ;
#239 = EDGE_LOOP ( 'NONE', ( #67, #203 ) ) ;
#240 = AXIS2_PLACEMENT_3D ( 'NONE', #96, #193, #34 ) ;
#241 = APPROVAL_STATUS ( 'not_yet_approved' ) ;
#242 = CC_DESIGN_PERSON_AND_ORGANIZATION_ASSIGNMENT ( #202, #7, ( #183 ) ) ;
#243 = COORDINATED_UNIVERSAL_TIME_OFFSET ( 1, 0, .AHEAD. ) ;
#244 = DIRECTION ( 'NONE',  ( 1.000000000000000000, 0.000000000000000000, -0.000000000000000000 ) ) ;
#245 = APPROVAL_DATE_TIME ( #208, #196 ) ;
#246 = CIRCLE ( 'NONE', #72, 5.100000000000001421 ) ;
#247 = APPROVAL_DATE_TIME ( #167, #151 ) ;
#248 = FACE_OUTER_BOUND ( 'NONE', #239, .T. ) ;
#249 = CIRCLE ( 'NONE', #143, 5.100000000000001421 ) ;
#250 = CC_DESIGN_APPROVAL ( #95, ( #223 ) ) ;
#251 = CARTESIAN_POINT ( 'NONE',  ( 5.100000000000001421, 6.245698675651502811E-16, 250.0000000000000000 ) ) ;
#252 = DIRECTION ( 'NONE',  ( 1.000000000000000000, 0.000000000000000000, 0.000000000000000000 ) ) ;
#253 = DIRECTION ( 'NONE',  ( -0.000000000000000000, -0.000000000000000000, -1.000000000000000000 ) ) ;
#254 = AXIS2_PLACEMENT_3D ( 'NONE', #13, #177, #141 ) ;
#255 = CC_DESIGN_PERSON_AND_ORGANIZATION_ASSIGNMENT ( #59, #3, ( #190 ) ) ;
ENDSEC;
END-ISO-10303-21;
