ISO-10303-21;
HEADER;
FILE_DESCRIPTION (( 'STEP AP203' ),
    '1' );
FILE_NAME ('7c05.STEP',
    '2023-02-12T10:41:47',
    ( '' ),
    ( '' ),
    'SwSTEP 2.0',
    'SolidWorks 2019',
    '' );
FILE_SCHEMA (( 'CONFIG_CONTROL_DESIGN' ));
ENDSEC;

DATA;
#1 = FACE_BOUND ( 'NONE', #74, .T. ) ;
#2 = APPROVAL_STATUS ( 'not_yet_approved' ) ;
#3 = EDGE_LOOP ( 'NONE', ( #192, #194, #94, #132 ) ) ;
#4 = ORIENTED_EDGE ( 'NONE', *, *, #139, .T. ) ;
#5 = CYLINDRICAL_SURFACE ( 'NONE', #147, 12.00000000000000178 ) ;
#6 = EDGE_CURVE ( 'NONE', #198, #225, #26, .T. ) ;
#7 =( GEOMETRIC_REPRESENTATION_CONTEXT ( 3 ) GLOBAL_UNCERTAINTY_ASSIGNED_CONTEXT ( ( #236 ) ) GLOBAL_UNIT_ASSIGNED_CONTEXT ( ( #218, #71, #175 ) ) REPRESENTATION_CONTEXT ( 'NONE', 'WORKASPACE' ) );
#8 = DIRECTION ( 'NONE',  ( 1.000000000000000000, 0.000000000000000000, 0.000000000000000000 ) ) ;
#9 = LINE ( 'NONE', #211, #244 ) ;
#10 = DIRECTION ( 'NONE',  ( -0.000000000000000000, -0.000000000000000000, -1.000000000000000000 ) ) ;
#11 = DIRECTION ( 'NONE',  ( 1.000000000000000000, 0.000000000000000000, 0.000000000000000000 ) ) ;
#12 = VECTOR ( 'NONE', #231, 1000.000000000000000 ) ;
#13 = LOCAL_TIME ( 11, 41, 47.00000000000000000, #31 ) ;
#14 = CALENDAR_DATE ( 2023, 12, 2 ) ;
#15 = ORIENTED_EDGE ( 'NONE', *, *, #134, .F. ) ;
#16 = EDGE_CURVE ( 'NONE', #196, #198, #40, .T. ) ;
#17 = CALENDAR_DATE ( 2023, 12, 2 ) ;
#18 = PERSON_AND_ORGANIZATION_ROLE ( 'design_owner' ) ;
#19 = DATE_TIME_ROLE ( 'classification_date' ) ;
#20 = ORIENTED_EDGE ( 'NONE', *, *, #234, .F. ) ;
#21 = PERSON_AND_ORGANIZATION ( #162, #68 ) ;
#22 = DIRECTION ( 'NONE',  ( -0.000000000000000000, -0.000000000000000000, -1.000000000000000000 ) ) ;
#23 = PERSON_AND_ORGANIZATION_ROLE ( 'design_supplier' ) ;
#24 = VECTOR ( 'NONE', #141, 1000.000000000000000 ) ;
#25 = ADVANCED_FACE ( 'NONE', ( #247 ), #5, .T. ) ;
#26 = CIRCLE ( 'NONE', #170, 9.000000000000000000 ) ;
#27 = CARTESIAN_POINT ( 'NONE',  ( 0.000000000000000000, 0.000000000000000000, 7.000000000000000000 ) ) ;
#28 = CARTESIAN_POINT ( 'NONE',  ( 0.000000000000000000, 0.000000000000000000, 125.0000000000000000 ) ) ;
#29 = CYLINDRICAL_SURFACE ( 'NONE', #215, 12.00000000000000178 ) ;
#30 = DIRECTION ( 'NONE',  ( 0.000000000000000000, 0.000000000000000000, 1.000000000000000000 ) ) ;
#31 = COORDINATED_UNIVERSAL_TIME_OFFSET ( 1, 0, .AHEAD. ) ;
#32 = CARTESIAN_POINT ( 'NONE',  ( 0.000000000000000000, 0.000000000000000000, 0.000000000000000000 ) ) ;
#33 = EDGE_LOOP ( 'NONE', ( #161, #38 ) ) ;
#34 = ADVANCED_FACE ( 'NONE', ( #203 ), #103, .T. ) ;
#35 = APPROVAL_STATUS ( 'not_yet_approved' ) ;
#36 = PRODUCT_DEFINITION_FORMATION_WITH_SPECIFIED_SOURCE ( 'LIBOVOLNÝ', '', #216, .NOT_KNOWN. ) ;
#37 = ORIENTED_EDGE ( 'NONE', *, *, #163, .T. ) ;
#38 = ORIENTED_EDGE ( 'NONE', *, *, #234, .T. ) ;
#39 = APPROVAL_DATE_TIME ( #202, #181 ) ;
#40 = LINE ( 'NONE', #59, #24 ) ;
#41 = AXIS2_PLACEMENT_3D ( 'NONE', #228, #227, #8 ) ;
#42 = APPROVAL_DATE_TIME ( #58, #60 ) ;
#43 = LINE ( 'NONE', #64, #204 ) ;
#44 = AXIS2_PLACEMENT_3D ( 'NONE', #84, #187, #48 ) ;
#45 = DIRECTION ( 'NONE',  ( 0.000000000000000000, 0.000000000000000000, 1.000000000000000000 ) ) ;
#46 = CIRCLE ( 'NONE', #230, 12.00000000000000178 ) ;
#47 = DIRECTION ( 'NONE',  ( 0.000000000000000000, 0.000000000000000000, 1.000000000000000000 ) ) ;
#48 = DIRECTION ( 'NONE',  ( 1.000000000000000000, 0.000000000000000000, 0.000000000000000000 ) ) ;
#49 = CARTESIAN_POINT ( 'NONE',  ( 0.000000000000000000, 0.000000000000000000, 7.000000000000000000 ) ) ;
#50 = DATE_AND_TIME ( #14, #190 ) ;
#51 = ORIENTED_EDGE ( 'NONE', *, *, #180, .T. ) ;
#52 = CC_DESIGN_DATE_AND_TIME_ASSIGNMENT ( #121, #19, ( #105 ) ) ;
#53 = PERSON_AND_ORGANIZATION_ROLE ( 'creator' ) ;
#54 = VERTEX_POINT ( 'NONE', #144 ) ;
#55 = APPROVAL_DATE_TIME ( #110, #69 ) ;
#56 = EDGE_LOOP ( 'NONE', ( #80, #246 ) ) ;
#57 = EDGE_CURVE ( 'NONE', #113, #54, #43, .T. ) ;
#58 = DATE_AND_TIME ( #223, #160 ) ;
#59 = CARTESIAN_POINT ( 'NONE',  ( -9.000000000000000000, 0.000000000000000000, 125.0000000000000000 ) ) ;
#60 = APPROVAL ( #79, 'NEURÈENÝ' ) ;
#61 = DIRECTION ( 'NONE',  ( 0.000000000000000000, 0.000000000000000000, 1.000000000000000000 ) ) ;
#62 = PERSON_AND_ORGANIZATION ( #162, #68 ) ;
#63 = DIRECTION ( 'NONE',  ( 1.000000000000000000, 0.000000000000000000, -0.000000000000000000 ) ) ;
#64 = CARTESIAN_POINT ( 'NONE',  ( 12.00000000000000178, 1.469576158976824144E-15, 7.000000000000000000 ) ) ;
#65 = AXIS2_PLACEMENT_3D ( 'NONE', #28, #169, #11 ) ;
#66 = DIRECTION ( 'NONE',  ( 1.000000000000000000, 0.000000000000000000, 0.000000000000000000 ) ) ;
#67 = CARTESIAN_POINT ( 'NONE',  ( -9.000000000000000000, 0.000000000000000000, 125.0000000000000000 ) ) ;
#68 = ORGANIZATION ( 'NEURÈENÝ', 'NEURÈENÝ', '' ) ;
#69 = APPROVAL ( #2, 'NEURÈENÝ' ) ;
#70 = CARTESIAN_POINT ( 'NONE',  ( 12.00000000000000178, 1.469576158976824144E-15, 7.000000000000000000 ) ) ;
#71 =( NAMED_UNIT ( * ) PLANE_ANGLE_UNIT ( ) SI_UNIT ( $, .RADIAN. ) );
#72 = AXIS2_PLACEMENT_3D ( 'NONE', #212, #250, #129 ) ;
#73 = ORIENTED_EDGE ( 'NONE', *, *, #57, .T. ) ;
#74 = EDGE_LOOP ( 'NONE', ( #138, #178 ) ) ;
#75 = DIRECTION ( 'NONE',  ( 1.000000000000000000, 0.000000000000000000, -0.000000000000000000 ) ) ;
#76 = EDGE_LOOP ( 'NONE', ( #4, #37 ) ) ;
#77 = CC_DESIGN_APPROVAL ( #181, ( #36 ) ) ;
#78 = CARTESIAN_POINT ( 'NONE',  ( 0.000000000000000000, 0.000000000000000000, 125.0000000000000000 ) ) ;
#79 = APPROVAL_STATUS ( 'not_yet_approved' ) ;
#80 = ORIENTED_EDGE ( 'NONE', *, *, #180, .F. ) ;
#81 = CIRCLE ( 'NONE', #41, 12.00000000000000178 ) ;
#82 = CALENDAR_DATE ( 2023, 12, 2 ) ;
#83 = MANIFOLD_SOLID_BREP ( 'Pøidat vysunutím3', #135 ) ;
#84 = CARTESIAN_POINT ( 'NONE',  ( 0.000000000000000000, 0.000000000000000000, 125.0000000000000000 ) ) ;
#85 = FACE_OUTER_BOUND ( 'NONE', #56, .T. ) ;
#86 = PLANE ( 'NONE',  #199 ) ;
#87 = CIRCLE ( 'NONE', #210, 9.000000000000000000 ) ;
#88 = CARTESIAN_POINT ( 'NONE',  ( 9.000000000000000000, 1.102182119232617714E-15, 7.000000000000000000 ) ) ;
#89 = DIRECTION ( 'NONE',  ( 1.000000000000000000, 0.000000000000000000, 0.000000000000000000 ) ) ;
#90 = DIRECTION ( 'NONE',  ( 1.000000000000000000, 0.000000000000000000, -0.000000000000000000 ) ) ;
#91 = ORIENTED_EDGE ( 'NONE', *, *, #6, .T. ) ;
#92 = ADVANCED_FACE ( 'NONE', ( #125 ), #200, .T. ) ;
#93 = CIRCLE ( 'NONE', #179, 12.00000000000000178 ) ;
#94 = ORIENTED_EDGE ( 'NONE', *, *, #117, .T. ) ;
#95 = APPLICATION_PROTOCOL_DEFINITION ( 'international standard', 'config_control_design', 1994, #102 ) ;
#96 = ORIENTED_EDGE ( 'NONE', *, *, #128, .F. ) ;
#97 = CIRCLE ( 'NONE', #44, 9.000000000000000000 ) ;
#98 = APPROVAL_PERSON_ORGANIZATION ( #133, #181, #195 ) ;
#99 = DIRECTION ( 'NONE',  ( -0.000000000000000000, -0.000000000000000000, -1.000000000000000000 ) ) ;
#100 = PRODUCT_DEFINITION ( 'NEZNÁMÝ', '', #36, #158 ) ;
#101 = CC_DESIGN_APPROVAL ( #69, ( #100 ) ) ;
#102 = APPLICATION_CONTEXT ( 'configuration controlled 3d designs of mechanical parts and assemblies' ) ;
#103 = PLANE ( 'NONE',  #243 ) ;
#104 = CARTESIAN_POINT ( 'NONE',  ( 9.000000000000000000, 1.102182119232617714E-15, 125.0000000000000000 ) ) ;
#105 = SECURITY_CLASSIFICATION ( '', '', #182 ) ;
#106 = CARTESIAN_POINT ( 'NONE',  ( -12.00000000000000178, 0.000000000000000000, 7.000000000000000000 ) ) ;
#107 = CARTESIAN_POINT ( 'NONE',  ( -12.00000000000000178, 0.000000000000000000, 0.000000000000000000 ) ) ;
#108 = CARTESIAN_POINT ( 'NONE',  ( 0.000000000000000000, 0.000000000000000000, 7.000000000000000000 ) ) ;
#109 = CIRCLE ( 'NONE', #65, 9.000000000000000000 ) ;
#110 = DATE_AND_TIME ( #17, #222 ) ;
#111 = FACE_OUTER_BOUND ( 'NONE', #33, .T. ) ;
#112 = CC_DESIGN_DATE_AND_TIME_ASSIGNMENT ( #50, #191, ( #100 ) ) ;
#113 = VERTEX_POINT ( 'NONE', #70 ) ;
#114 = ORIENTED_EDGE ( 'NONE', *, *, #122, .T. ) ;
#115 = DIRECTION ( 'NONE',  ( 0.000000000000000000, 0.000000000000000000, 1.000000000000000000 ) ) ;
#116 = ORIENTED_EDGE ( 'NONE', *, *, #248, .T. ) ;
#117 = EDGE_CURVE ( 'NONE', #225, #198, #87, .T. ) ;
#118 = PRODUCT_DEFINITION_SHAPE ( 'NONE', 'NONE',  #100 ) ;
#119 = PERSON_AND_ORGANIZATION ( #162, #68 ) ;
#120 = VERTEX_POINT ( 'NONE', #107 ) ;
#121 = DATE_AND_TIME ( #245, #184 ) ;
#122 = EDGE_CURVE ( 'NONE', #54, #120, #93, .T. ) ;
#123 = AXIS2_PLACEMENT_3D ( 'NONE', #131, #30, #75 ) ;
#124 = SHAPE_DEFINITION_REPRESENTATION ( #118, #207 ) ;
#125 = FACE_OUTER_BOUND ( 'NONE', #205, .T. ) ;
#126 = CYLINDRICAL_SURFACE ( 'NONE', #72, 9.000000000000000000 ) ;
#127 = CARTESIAN_POINT ( 'NONE',  ( -9.000000000000000000, 0.000000000000000000, 7.000000000000000000 ) ) ;
#128 = EDGE_CURVE ( 'NONE', #237, #113, #214, .T. ) ;
#129 = DIRECTION ( 'NONE',  ( -1.000000000000000000, 0.000000000000000000, 0.000000000000000000 ) ) ;
#130 = CARTESIAN_POINT ( 'NONE',  ( 0.000000000000000000, 0.000000000000000000, 7.000000000000000000 ) ) ;
#131 = CARTESIAN_POINT ( 'NONE',  ( 0.000000000000000000, 0.000000000000000000, 7.000000000000000000 ) ) ;
#132 = ORIENTED_EDGE ( 'NONE', *, *, #16, .F. ) ;
#133 = PERSON_AND_ORGANIZATION ( #162, #68 ) ;
#134 = EDGE_CURVE ( 'NONE', #154, #225, #252, .T. ) ;
#135 = CLOSED_SHELL ( 'NONE', ( #188, #25, #206, #255, #251, #92, #34 ) ) ;
#136 = APPROVAL_PERSON_ORGANIZATION ( #62, #60, #241 ) ;
#137 = ORIENTED_EDGE ( 'NONE', *, *, #248, .F. ) ;
#138 = ORIENTED_EDGE ( 'NONE', *, *, #6, .F. ) ;
#139 = EDGE_CURVE ( 'NONE', #196, #154, #97, .T. ) ;
#140 = PERSON_AND_ORGANIZATION ( #162, #68 ) ;
#141 = DIRECTION ( 'NONE',  ( -0.000000000000000000, -0.000000000000000000, -1.000000000000000000 ) ) ;
#142 = DIRECTION ( 'NONE',  ( 1.000000000000000000, 0.000000000000000000, 0.000000000000000000 ) ) ;
#143 = COORDINATED_UNIVERSAL_TIME_OFFSET ( 1, 0, .AHEAD. ) ;
#144 = CARTESIAN_POINT ( 'NONE',  ( 12.00000000000000178, 1.469576158976824144E-15, 0.000000000000000000 ) ) ;
#145 = CC_DESIGN_PERSON_AND_ORGANIZATION_ASSIGNMENT ( #140, #197, ( #105 ) ) ;
#146 = DIRECTION ( 'NONE',  ( -0.000000000000000000, -0.000000000000000000, -1.000000000000000000 ) ) ;
#147 = AXIS2_PLACEMENT_3D ( 'NONE', #224, #99, #183 ) ;
#148 = CC_DESIGN_PERSON_AND_ORGANIZATION_ASSIGNMENT ( #119, #23, ( #36 ) ) ;
#149 = CARTESIAN_POINT ( 'NONE',  ( 0.000000000000000000, 0.000000000000000000, 0.000000000000000000 ) ) ;
#150 = AXIS2_PLACEMENT_3D ( 'NONE', #156, #115, #89 ) ;
#151 = DIRECTION ( 'NONE',  ( 0.000000000000000000, 0.000000000000000000, 1.000000000000000000 ) ) ;
#152 = DIRECTION ( 'NONE',  ( 1.000000000000000000, 0.000000000000000000, 0.000000000000000000 ) ) ;
#153 = APPLICATION_PROTOCOL_DEFINITION ( 'international standard', 'config_control_design', 1994, #226 ) ;
#154 = VERTEX_POINT ( 'NONE', #249 ) ;
#155 = APPROVAL_PERSON_ORGANIZATION ( #176, #69, #157 ) ;
#156 = CARTESIAN_POINT ( 'NONE',  ( 0.000000000000000000, 0.000000000000000000, 0.000000000000000000 ) ) ;
#157 = APPROVAL_ROLE ( '' ) ;
#158 = DESIGN_CONTEXT ( 'detailed design', #102, 'design' ) ;
#159 = DIRECTION ( 'NONE',  ( 0.000000000000000000, 0.000000000000000000, 1.000000000000000000 ) ) ;
#160 = LOCAL_TIME ( 11, 41, 47.00000000000000000, #143 ) ;
#161 = ORIENTED_EDGE ( 'NONE', *, *, #128, .T. ) ;
#162 = PERSON ( 'NEURÈENÝ', 'NEURÈENÝ', 'NEURÈENÝ', ('NEURÈENÝ'), ('NEURÈENÝ'), ('NEURÈENÝ') ) ;
#163 = EDGE_CURVE ( 'NONE', #154, #196, #109, .T. ) ;
#164 = COORDINATED_UNIVERSAL_TIME_OFFSET ( 1, 0, .AHEAD. ) ;
#165 = DIRECTION ( 'NONE',  ( -1.000000000000000000, 0.000000000000000000, 0.000000000000000000 ) ) ;
#166 = CARTESIAN_POINT ( 'NONE',  ( 0.000000000000000000, 0.000000000000000000, 7.000000000000000000 ) ) ;
#167 = CARTESIAN_POINT ( 'NONE',  ( 0.000000000000000000, 0.000000000000000000, 125.0000000000000000 ) ) ;
#168 = PERSON_AND_ORGANIZATION_ROLE ( 'creator' ) ;
#169 = DIRECTION ( 'NONE',  ( 0.000000000000000000, 0.000000000000000000, 1.000000000000000000 ) ) ;
#170 = AXIS2_PLACEMENT_3D ( 'NONE', #166, #61, #142 ) ;
#171 = CC_DESIGN_PERSON_AND_ORGANIZATION_ASSIGNMENT ( #21, #168, ( #36 ) ) ;
#172 = DIRECTION ( 'NONE',  ( 0.000000000000000000, 0.000000000000000000, 1.000000000000000000 ) ) ;
#173 = AXIS2_PLACEMENT_3D ( 'NONE', #78, #22, #165 ) ;
#174 = DIRECTION ( 'NONE',  ( 1.000000000000000000, 0.000000000000000000, 0.000000000000000000 ) ) ;
#175 =( NAMED_UNIT ( * ) SI_UNIT ( $, .STERADIAN. ) SOLID_ANGLE_UNIT ( ) );
#176 = PERSON_AND_ORGANIZATION ( #162, #68 ) ;
#177 = ORIENTED_EDGE ( 'NONE', *, *, #16, .T. ) ;
#178 = ORIENTED_EDGE ( 'NONE', *, *, #117, .F. ) ;
#179 = AXIS2_PLACEMENT_3D ( 'NONE', #149, #45, #186 ) ;
#180 = EDGE_CURVE ( 'NONE', #120, #54, #81, .T. ) ;
#181 = APPROVAL ( #35, 'NEURÈENÝ' ) ;
#182 = SECURITY_CLASSIFICATION_LEVEL ( 'unclassified' ) ;
#183 = DIRECTION ( 'NONE',  ( -1.000000000000000000, 0.000000000000000000, 0.000000000000000000 ) ) ;
#184 = LOCAL_TIME ( 11, 41, 47.00000000000000000, #164 ) ;
#185 = DIRECTION ( 'NONE',  ( 0.000000000000000000, 0.000000000000000000, 1.000000000000000000 ) ) ;
#186 = DIRECTION ( 'NONE',  ( 1.000000000000000000, 0.000000000000000000, 0.000000000000000000 ) ) ;
#187 = DIRECTION ( 'NONE',  ( 0.000000000000000000, 0.000000000000000000, 1.000000000000000000 ) ) ;
#188 = ADVANCED_FACE ( 'NONE', ( #208 ), #126, .T. ) ;
#189 = DIRECTION ( 'NONE',  ( -1.000000000000000000, 0.000000000000000000, 0.000000000000000000 ) ) ;
#190 = LOCAL_TIME ( 11, 41, 47.00000000000000000, #232 ) ;
#191 = DATE_TIME_ROLE ( 'creation_date' ) ;
#192 = ORIENTED_EDGE ( 'NONE', *, *, #163, .F. ) ;
#193 = CC_DESIGN_PERSON_AND_ORGANIZATION_ASSIGNMENT ( #217, #18, ( #216 ) ) ;
#194 = ORIENTED_EDGE ( 'NONE', *, *, #134, .T. ) ;
#195 = APPROVAL_ROLE ( '' ) ;
#196 = VERTEX_POINT ( 'NONE', #67 ) ;
#197 = PERSON_AND_ORGANIZATION_ROLE ( 'classification_officer' ) ;
#198 = VERTEX_POINT ( 'NONE', #127 ) ;
#199 = AXIS2_PLACEMENT_3D ( 'NONE', #32, #159, #90 ) ;
#200 = CYLINDRICAL_SURFACE ( 'NONE', #173, 9.000000000000000000 ) ;
#201 = CC_DESIGN_PERSON_AND_ORGANIZATION_ASSIGNMENT ( #213, #53, ( #100 ) ) ;
#202 = DATE_AND_TIME ( #82, #13 ) ;
#203 = FACE_OUTER_BOUND ( 'NONE', #76, .T. ) ;
#204 = VECTOR ( 'NONE', #146, 1000.000000000000000 ) ;
#205 = EDGE_LOOP ( 'NONE', ( #15, #221, #177, #91 ) ) ;
#206 = ADVANCED_FACE ( 'NONE', ( #253 ), #29, .T. ) ;
#207 = ADVANCED_BREP_SHAPE_REPRESENTATION ( '7c05', ( #83, #150 ), #7 ) ;
#208 = FACE_OUTER_BOUND ( 'NONE', #3, .T. ) ;
#209 = DIRECTION ( 'NONE',  ( -0.000000000000000000, -0.000000000000000000, -1.000000000000000000 ) ) ;
#210 = AXIS2_PLACEMENT_3D ( 'NONE', #49, #172, #152 ) ;
#211 = CARTESIAN_POINT ( 'NONE',  ( -12.00000000000000178, 0.000000000000000000, 7.000000000000000000 ) ) ;
#212 = CARTESIAN_POINT ( 'NONE',  ( 0.000000000000000000, 0.000000000000000000, 125.0000000000000000 ) ) ;
#213 = PERSON_AND_ORGANIZATION ( #162, #68 ) ;
#214 = CIRCLE ( 'NONE', #238, 12.00000000000000178 ) ;
#215 = AXIS2_PLACEMENT_3D ( 'NONE', #108, #209, #189 ) ;
#216 = PRODUCT ( '7c05', '7c05', '', ( #235 ) ) ;
#217 = PERSON_AND_ORGANIZATION ( #162, #68 ) ;
#218 =( LENGTH_UNIT ( ) NAMED_UNIT ( * ) SI_UNIT ( .MILLI., .METRE. ) );
#219 = CC_DESIGN_APPROVAL ( #60, ( #105 ) ) ;
#220 = PLANE ( 'NONE',  #123 ) ;
#221 = ORIENTED_EDGE ( 'NONE', *, *, #139, .F. ) ;
#222 = LOCAL_TIME ( 11, 41, 47.00000000000000000, #239 ) ;
#223 = CALENDAR_DATE ( 2023, 12, 2 ) ;
#224 = CARTESIAN_POINT ( 'NONE',  ( 0.000000000000000000, 0.000000000000000000, 7.000000000000000000 ) ) ;
#225 = VERTEX_POINT ( 'NONE', #88 ) ;
#226 = APPLICATION_CONTEXT ( 'configuration controlled 3d designs of mechanical parts and assemblies' ) ;
#227 = DIRECTION ( 'NONE',  ( 0.000000000000000000, 0.000000000000000000, 1.000000000000000000 ) ) ;
#228 = CARTESIAN_POINT ( 'NONE',  ( 0.000000000000000000, 0.000000000000000000, 0.000000000000000000 ) ) ;
#229 = PRODUCT_RELATED_PRODUCT_CATEGORY ( 'detail', '', ( #216 ) ) ;
#230 = AXIS2_PLACEMENT_3D ( 'NONE', #27, #47, #174 ) ;
#231 = DIRECTION ( 'NONE',  ( -0.000000000000000000, -0.000000000000000000, -1.000000000000000000 ) ) ;
#232 = COORDINATED_UNIVERSAL_TIME_OFFSET ( 1, 0, .AHEAD. ) ;
#233 = ORIENTED_EDGE ( 'NONE', *, *, #57, .F. ) ;
#234 = EDGE_CURVE ( 'NONE', #113, #237, #46, .T. ) ;
#235 = MECHANICAL_CONTEXT ( 'NONE', #226, 'mechanical' ) ;
#236 = UNCERTAINTY_MEASURE_WITH_UNIT (LENGTH_MEASURE( 1.000000000000000082E-05 ), #218, 'distance_accuracy_value', 'NONE');
#237 = VERTEX_POINT ( 'NONE', #106 ) ;
#238 = AXIS2_PLACEMENT_3D ( 'NONE', #130, #151, #66 ) ;
#239 = COORDINATED_UNIVERSAL_TIME_OFFSET ( 1, 0, .AHEAD. ) ;
#240 = EDGE_LOOP ( 'NONE', ( #233, #96, #116, #51 ) ) ;
#241 = APPROVAL_ROLE ( '' ) ;
#242 = EDGE_LOOP ( 'NONE', ( #20, #73, #114, #137 ) ) ;
#243 = AXIS2_PLACEMENT_3D ( 'NONE', #167, #185, #63 ) ;
#244 = VECTOR ( 'NONE', #10, 1000.000000000000000 ) ;
#245 = CALENDAR_DATE ( 2023, 12, 2 ) ;
#246 = ORIENTED_EDGE ( 'NONE', *, *, #122, .F. ) ;
#247 = FACE_OUTER_BOUND ( 'NONE', #242, .T. ) ;
#248 = EDGE_CURVE ( 'NONE', #237, #120, #9, .T. ) ;
#249 = CARTESIAN_POINT ( 'NONE',  ( 9.000000000000000000, 1.102182119232617714E-15, 125.0000000000000000 ) ) ;
#250 = DIRECTION ( 'NONE',  ( -0.000000000000000000, -0.000000000000000000, -1.000000000000000000 ) ) ;
#251 = ADVANCED_FACE ( 'NONE', ( #85 ), #86, .F. ) ;
#252 = LINE ( 'NONE', #104, #12 ) ;
#253 = FACE_OUTER_BOUND ( 'NONE', #240, .T. ) ;
#254 = CC_DESIGN_SECURITY_CLASSIFICATION ( #105, ( #36 ) ) ;
#255 = ADVANCED_FACE ( 'NONE', ( #1, #111 ), #220, .T. ) ;
ENDSEC;
END-ISO-10303-21;
