ISO-10303-21;
HEADER;
FILE_DESCRIPTION (( 'STEP AP203' ),
    '1' );
FILE_NAME ('3ba2.STEP',
    '2023-02-12T10:26:30',
    ( '' ),
    ( '' ),
    'SwSTEP 2.0',
    'SolidWorks 2019',
    '' );
FILE_SCHEMA (( 'CONFIG_CONTROL_DESIGN' ));
ENDSEC;

DATA;
#1 = CIRCLE ( 'NONE', #129, 20.00000000000000000 ) ;
#2 = APPROVAL_PERSON_ORGANIZATION ( #44, #3, #80 ) ;
#3 = APPROVAL ( #121, 'NEURÈENÝ' ) ;
#4 = DATE_AND_TIME ( #172, #86 ) ;
#5 = ORIENTED_EDGE ( 'NONE', *, *, #170, .F. ) ;
#6 = ORIENTED_EDGE ( 'NONE', *, *, #54, .F. ) ;
#7 = CIRCLE ( 'NONE', #40, 20.00000000000000000 ) ;
#8 = AXIS2_PLACEMENT_3D ( 'NONE', #228, #188, #169 ) ;
#9 = DIRECTION ( 'NONE',  ( -1.000000000000000000, 0.000000000000000000, 0.000000000000000000 ) ) ;
#10 = EDGE_CURVE ( 'NONE', #84, #237, #157, .T. ) ;
#11 = DIRECTION ( 'NONE',  ( -1.000000000000000000, 0.000000000000000000, 0.000000000000000000 ) ) ;
#12 = DIRECTION ( 'NONE',  ( 1.000000000000000000, 0.000000000000000000, 0.000000000000000000 ) ) ;
#13 = DIRECTION ( 'NONE',  ( 0.000000000000000000, 0.000000000000000000, 1.000000000000000000 ) ) ;
#14 = DIRECTION ( 'NONE',  ( -1.000000000000000000, 0.000000000000000000, 0.000000000000000000 ) ) ;
#15 = DIRECTION ( 'NONE',  ( 1.000000000000000000, 0.000000000000000000, 0.000000000000000000 ) ) ;
#16 =( NAMED_UNIT ( * ) PLANE_ANGLE_UNIT ( ) SI_UNIT ( $, .RADIAN. ) );
#17 = FACE_BOUND ( 'NONE', #122, .T. ) ;
#18 = EDGE_CURVE ( 'NONE', #213, #226, #47, .T. ) ;
#19 = CIRCLE ( 'NONE', #242, 16.00000000000000000 ) ;
#20 = UNCERTAINTY_MEASURE_WITH_UNIT (LENGTH_MEASURE( 1.000000000000000082E-05 ), #168, 'distance_accuracy_value', 'NONE');
#21 = PERSON_AND_ORGANIZATION ( #232, #28 ) ;
#22 = PRODUCT_DEFINITION_SHAPE ( 'NONE', 'NONE',  #182 ) ;
#23 = ORIENTED_EDGE ( 'NONE', *, *, #147, .F. ) ;
#24 = ORIENTED_EDGE ( 'NONE', *, *, #137, .F. ) ;
#25 = CARTESIAN_POINT ( 'NONE',  ( 0.000000000000000000, 0.000000000000000000, 10.00000000000000000 ) ) ;
#26 = CYLINDRICAL_SURFACE ( 'NONE', #208, 16.00000000000000000 ) ;
#27 = AXIS2_PLACEMENT_3D ( 'NONE', #70, #244, #93 ) ;
#28 = ORGANIZATION ( 'NEURÈENÝ', 'NEURÈENÝ', '' ) ;
#29 = DIRECTION ( 'NONE',  ( -0.000000000000000000, -0.000000000000000000, -1.000000000000000000 ) ) ;
#30 = LINE ( 'NONE', #114, #69 ) ;
#31 = DIRECTION ( 'NONE',  ( -0.000000000000000000, -0.000000000000000000, -1.000000000000000000 ) ) ;
#32 = LOCAL_TIME ( 11, 26, 30.00000000000000000, #233 ) ;
#33 = FACE_OUTER_BOUND ( 'NONE', #229, .T. ) ;
#34 = CC_DESIGN_PERSON_AND_ORGANIZATION_ASSIGNMENT ( #203, #146, ( #48 ) ) ;
#35 = PERSON_AND_ORGANIZATION_ROLE ( 'creator' ) ;
#36 = MANIFOLD_SOLID_BREP ( 'Pøidat vysunutím3', #74 ) ;
#37 = APPROVAL ( #230, 'NEURÈENÝ' ) ;
#38 = COORDINATED_UNIVERSAL_TIME_OFFSET ( 1, 0, .AHEAD. ) ;
#39 = ORIENTED_EDGE ( 'NONE', *, *, #238, .F. ) ;
#40 = AXIS2_PLACEMENT_3D ( 'NONE', #71, #141, #12 ) ;
#41 = PERSON_AND_ORGANIZATION_ROLE ( 'classification_officer' ) ;
#42 =( GEOMETRIC_REPRESENTATION_CONTEXT ( 3 ) GLOBAL_UNCERTAINTY_ASSIGNED_CONTEXT ( ( #20 ) ) GLOBAL_UNIT_ASSIGNED_CONTEXT ( ( #168, #16, #185 ) ) REPRESENTATION_CONTEXT ( 'NONE', 'WORKASPACE' ) );
#43 = COORDINATED_UNIVERSAL_TIME_OFFSET ( 1, 0, .AHEAD. ) ;
#44 = PERSON_AND_ORGANIZATION ( #232, #28 ) ;
#45 = EDGE_LOOP ( 'NONE', ( #231, #150 ) ) ;
#46 = ADVANCED_BREP_SHAPE_REPRESENTATION ( '3ba2', ( #36, #179 ), #42 ) ;
#47 = LINE ( 'NONE', #240, #195 ) ;
#48 = PRODUCT ( '3ba2', '3ba2', '', ( #167 ) ) ;
#49 = EDGE_CURVE ( 'NONE', #226, #211, #214, .T. ) ;
#50 = CYLINDRICAL_SURFACE ( 'NONE', #241, 20.00000000000000000 ) ;
#51 = DIRECTION ( 'NONE',  ( -0.000000000000000000, -0.000000000000000000, -1.000000000000000000 ) ) ;
#52 = AXIS2_PLACEMENT_3D ( 'NONE', #181, #51, #11 ) ;
#53 = SECURITY_CLASSIFICATION ( '', '', #154 ) ;
#54 = EDGE_CURVE ( 'NONE', #211, #226, #1, .T. ) ;
#55 = DIRECTION ( 'NONE',  ( 1.000000000000000000, 0.000000000000000000, 0.000000000000000000 ) ) ;
#56 = CARTESIAN_POINT ( 'NONE',  ( 0.000000000000000000, 0.000000000000000000, 10.00000000000000000 ) ) ;
#57 = DIRECTION ( 'NONE',  ( 0.000000000000000000, 0.000000000000000000, 1.000000000000000000 ) ) ;
#58 = ADVANCED_FACE ( 'NONE', ( #76 ), #50, .T. ) ;
#59 = CARTESIAN_POINT ( 'NONE',  ( -16.00000000000000000, 0.000000000000000000, 10.00000000000000000 ) ) ;
#60 = CALENDAR_DATE ( 2023, 12, 2 ) ;
#61 = EDGE_LOOP ( 'NONE', ( #81, #67, #192, #215 ) ) ;
#62 = APPROVAL_ROLE ( '' ) ;
#63 = PERSON_AND_ORGANIZATION ( #232, #28 ) ;
#64 = APPROVAL_DATE_TIME ( #4, #37 ) ;
#65 = CIRCLE ( 'NONE', #130, 16.00000000000000000 ) ;
#66 = ORIENTED_EDGE ( 'NONE', *, *, #49, .F. ) ;
#67 = ORIENTED_EDGE ( 'NONE', *, *, #170, .T. ) ;
#68 = DIRECTION ( 'NONE',  ( -0.000000000000000000, -0.000000000000000000, -1.000000000000000000 ) ) ;
#69 = VECTOR ( 'NONE', #31, 1000.000000000000000 ) ;
#70 = CARTESIAN_POINT ( 'NONE',  ( 0.000000000000000000, 0.000000000000000000, 0.000000000000000000 ) ) ;
#71 = CARTESIAN_POINT ( 'NONE',  ( 0.000000000000000000, 0.000000000000000000, 10.00000000000000000 ) ) ;
#72 = DIRECTION ( 'NONE',  ( -1.000000000000000000, 0.000000000000000000, 0.000000000000000000 ) ) ;
#73 = CIRCLE ( 'NONE', #104, 16.00000000000000000 ) ;
#74 = CLOSED_SHELL ( 'NONE', ( #177, #132, #58, #251, #196, #111, #97 ) ) ;
#75 = DIRECTION ( 'NONE',  ( 0.000000000000000000, 0.000000000000000000, 1.000000000000000000 ) ) ;
#76 = FACE_OUTER_BOUND ( 'NONE', #175, .T. ) ;
#77 = CARTESIAN_POINT ( 'NONE',  ( -20.00000000000000000, 0.000000000000000000, 0.000000000000000000 ) ) ;
#78 = APPROVAL_DATE_TIME ( #250, #127 ) ;
#79 = VERTEX_POINT ( 'NONE', #124 ) ;
#80 = APPROVAL_ROLE ( '' ) ;
#81 = ORIENTED_EDGE ( 'NONE', *, *, #134, .F. ) ;
#82 = PRODUCT_RELATED_PRODUCT_CATEGORY ( 'detail', '', ( #48 ) ) ;
#83 = DATE_TIME_ROLE ( 'classification_date' ) ;
#84 = VERTEX_POINT ( 'NONE', #216 ) ;
#85 = AXIS2_PLACEMENT_3D ( 'NONE', #180, #13, #162 ) ;
#86 = LOCAL_TIME ( 11, 26, 30.00000000000000000, #38 ) ;
#87 = EDGE_LOOP ( 'NONE', ( #39, #210, #159, #89 ) ) ;
#88 = EDGE_CURVE ( 'NONE', #138, #197, #221, .T. ) ;
#89 = ORIENTED_EDGE ( 'NONE', *, *, #10, .F. ) ;
#90 = VECTOR ( 'NONE', #68, 1000.000000000000000 ) ;
#91 = DIRECTION ( 'NONE',  ( 0.000000000000000000, 0.000000000000000000, 1.000000000000000000 ) ) ;
#92 = CARTESIAN_POINT ( 'NONE',  ( 0.000000000000000000, 0.000000000000000000, 250.0000000000000000 ) ) ;
#93 = DIRECTION ( 'NONE',  ( 1.000000000000000000, 0.000000000000000000, 0.000000000000000000 ) ) ;
#94 = CARTESIAN_POINT ( 'NONE',  ( 0.000000000000000000, 0.000000000000000000, 250.0000000000000000 ) ) ;
#95 = AXIS2_PLACEMENT_3D ( 'NONE', #202, #252, #118 ) ;
#96 = CARTESIAN_POINT ( 'NONE',  ( 0.000000000000000000, 0.000000000000000000, 250.0000000000000000 ) ) ;
#97 = ADVANCED_FACE ( 'NONE', ( #128 ), #110, .T. ) ;
#98 = APPLICATION_PROTOCOL_DEFINITION ( 'international standard', 'config_control_design', 1994, #205 ) ;
#99 = APPLICATION_PROTOCOL_DEFINITION ( 'international standard', 'config_control_design', 1994, #113 ) ;
#100 = LOCAL_TIME ( 11, 26, 30.00000000000000000, #225 ) ;
#101 = ORIENTED_EDGE ( 'NONE', *, *, #18, .T. ) ;
#102 = FACE_OUTER_BOUND ( 'NONE', #234, .T. ) ;
#103 = ORIENTED_EDGE ( 'NONE', *, *, #88, .F. ) ;
#104 = AXIS2_PLACEMENT_3D ( 'NONE', #133, #57, #120 ) ;
#105 = PERSON_AND_ORGANIZATION_ROLE ( 'design_supplier' ) ;
#106 = CALENDAR_DATE ( 2023, 12, 2 ) ;
#107 = EDGE_CURVE ( 'NONE', #213, #79, #7, .T. ) ;
#108 = APPROVAL_DATE_TIME ( #191, #3 ) ;
#109 = ORIENTED_EDGE ( 'NONE', *, *, #147, .T. ) ;
#110 = PLANE ( 'NONE',  #223 ) ;
#111 = ADVANCED_FACE ( 'NONE', ( #142 ), #26, .T. ) ;
#112 = DIRECTION ( 'NONE',  ( -0.000000000000000000, -0.000000000000000000, -1.000000000000000000 ) ) ;
#113 = APPLICATION_CONTEXT ( 'configuration controlled 3d designs of mechanical parts and assemblies' ) ;
#114 = CARTESIAN_POINT ( 'NONE',  ( 20.00000000000000000, 2.449293598294706513E-15, 10.00000000000000000 ) ) ;
#115 = FACE_OUTER_BOUND ( 'NONE', #87, .T. ) ;
#116 = APPROVAL_PERSON_ORGANIZATION ( #149, #127, #62 ) ;
#117 = CARTESIAN_POINT ( 'NONE',  ( -20.00000000000000000, 0.000000000000000000, 10.00000000000000000 ) ) ;
#118 = DIRECTION ( 'NONE',  ( 1.000000000000000000, 0.000000000000000000, -0.000000000000000000 ) ) ;
#119 = CALENDAR_DATE ( 2023, 12, 2 ) ;
#120 = DIRECTION ( 'NONE',  ( 1.000000000000000000, 0.000000000000000000, 0.000000000000000000 ) ) ;
#121 = APPROVAL_STATUS ( 'not_yet_approved' ) ;
#122 = EDGE_LOOP ( 'NONE', ( #23, #155 ) ) ;
#123 = DIRECTION ( 'NONE',  ( -0.000000000000000000, -0.000000000000000000, -1.000000000000000000 ) ) ;
#124 = CARTESIAN_POINT ( 'NONE',  ( 20.00000000000000000, 2.449293598294706513E-15, 10.00000000000000000 ) ) ;
#125 = CC_DESIGN_APPROVAL ( #127, ( #182 ) ) ;
#126 = DIRECTION ( 'NONE',  ( 0.000000000000000000, 0.000000000000000000, 1.000000000000000000 ) ) ;
#127 = APPROVAL ( #224, 'NEURÈENÝ' ) ;
#128 = FACE_OUTER_BOUND ( 'NONE', #45, .T. ) ;
#129 = AXIS2_PLACEMENT_3D ( 'NONE', #249, #247, #161 ) ;
#130 = AXIS2_PLACEMENT_3D ( 'NONE', #245, #75, #143 ) ;
#131 = COORDINATED_UNIVERSAL_TIME_OFFSET ( 1, 0, .AHEAD. ) ;
#132 = ADVANCED_FACE ( 'NONE', ( #145 ), #165, .T. ) ;
#133 = CARTESIAN_POINT ( 'NONE',  ( 0.000000000000000000, 0.000000000000000000, 250.0000000000000000 ) ) ;
#134 = EDGE_CURVE ( 'NONE', #79, #213, #235, .T. ) ;
#135 = DATE_AND_TIME ( #106, #32 ) ;
#136 = CALENDAR_DATE ( 2023, 12, 2 ) ;
#137 = EDGE_CURVE ( 'NONE', #84, #138, #65, .T. ) ;
#138 = VERTEX_POINT ( 'NONE', #219 ) ;
#139 = SHAPE_DEFINITION_REPRESENTATION ( #22, #46 ) ;
#140 = ORIENTED_EDGE ( 'NONE', *, *, #49, .T. ) ;
#141 = DIRECTION ( 'NONE',  ( 0.000000000000000000, 0.000000000000000000, 1.000000000000000000 ) ) ;
#142 = FACE_OUTER_BOUND ( 'NONE', #207, .T. ) ;
#143 = DIRECTION ( 'NONE',  ( 1.000000000000000000, 0.000000000000000000, 0.000000000000000000 ) ) ;
#144 = EDGE_CURVE ( 'NONE', #197, #237, #164, .T. ) ;
#145 = FACE_OUTER_BOUND ( 'NONE', #61, .T. ) ;
#146 = PERSON_AND_ORGANIZATION_ROLE ( 'design_owner' ) ;
#147 = EDGE_CURVE ( 'NONE', #237, #197, #19, .T. ) ;
#148 = PERSON_AND_ORGANIZATION ( #232, #28 ) ;
#149 = PERSON_AND_ORGANIZATION ( #232, #28 ) ;
#150 = ORIENTED_EDGE ( 'NONE', *, *, #238, .T. ) ;
#151 = APPROVAL_PERSON_ORGANIZATION ( #21, #37, #212 ) ;
#152 = PLANE ( 'NONE',  #8 ) ;
#153 = CC_DESIGN_DATE_AND_TIME_ASSIGNMENT ( #204, #206, ( #182 ) ) ;
#154 = SECURITY_CLASSIFICATION_LEVEL ( 'unclassified' ) ;
#155 = ORIENTED_EDGE ( 'NONE', *, *, #144, .F. ) ;
#156 = ORIENTED_EDGE ( 'NONE', *, *, #107, .F. ) ;
#157 = LINE ( 'NONE', #239, #90 ) ;
#158 = PERSON_AND_ORGANIZATION ( #232, #28 ) ;
#159 = ORIENTED_EDGE ( 'NONE', *, *, #144, .T. ) ;
#160 = VECTOR ( 'NONE', #243, 1000.000000000000000 ) ;
#161 = DIRECTION ( 'NONE',  ( 1.000000000000000000, 0.000000000000000000, 0.000000000000000000 ) ) ;
#162 = DIRECTION ( 'NONE',  ( 1.000000000000000000, 0.000000000000000000, 0.000000000000000000 ) ) ;
#163 = CC_DESIGN_PERSON_AND_ORGANIZATION_ASSIGNMENT ( #63, #105, ( #200 ) ) ;
#164 = CIRCLE ( 'NONE', #217, 16.00000000000000000 ) ;
#165 = CYLINDRICAL_SURFACE ( 'NONE', #52, 20.00000000000000000 ) ;
#166 = DIRECTION ( 'NONE',  ( -0.000000000000000000, -0.000000000000000000, -1.000000000000000000 ) ) ;
#167 = MECHANICAL_CONTEXT ( 'NONE', #205, 'mechanical' ) ;
#168 =( LENGTH_UNIT ( ) NAMED_UNIT ( * ) SI_UNIT ( .MILLI., .METRE. ) );
#169 = DIRECTION ( 'NONE',  ( 1.000000000000000000, 0.000000000000000000, -0.000000000000000000 ) ) ;
#170 = EDGE_CURVE ( 'NONE', #79, #211, #30, .T. ) ;
#171 = CARTESIAN_POINT ( 'NONE',  ( 0.000000000000000000, 0.000000000000000000, 0.000000000000000000 ) ) ;
#172 = CALENDAR_DATE ( 2023, 12, 2 ) ;
#173 = CC_DESIGN_DATE_AND_TIME_ASSIGNMENT ( #135, #83, ( #53 ) ) ;
#174 = ORIENTED_EDGE ( 'NONE', *, *, #107, .T. ) ;
#175 = EDGE_LOOP ( 'NONE', ( #5, #156, #101, #140 ) ) ;
#176 = ORIENTED_EDGE ( 'NONE', *, *, #134, .T. ) ;
#177 = ADVANCED_FACE ( 'NONE', ( #115 ), #184, .T. ) ;
#178 = DIRECTION ( 'NONE',  ( 1.000000000000000000, 0.000000000000000000, -0.000000000000000000 ) ) ;
#179 = AXIS2_PLACEMENT_3D ( 'NONE', #171, #253, #15 ) ;
#180 = CARTESIAN_POINT ( 'NONE',  ( 0.000000000000000000, 0.000000000000000000, 10.00000000000000000 ) ) ;
#181 = CARTESIAN_POINT ( 'NONE',  ( 0.000000000000000000, 0.000000000000000000, 10.00000000000000000 ) ) ;
#182 = PRODUCT_DEFINITION ( 'NEZNÁMÝ', '', #200, #248 ) ;
#183 = DIRECTION ( 'NONE',  ( 0.000000000000000000, 0.000000000000000000, 1.000000000000000000 ) ) ;
#184 = CYLINDRICAL_SURFACE ( 'NONE', #194, 16.00000000000000000 ) ;
#185 =( NAMED_UNIT ( * ) SI_UNIT ( $, .STERADIAN. ) SOLID_ANGLE_UNIT ( ) );
#186 = PLANE ( 'NONE',  #95 ) ;
#187 = LOCAL_TIME ( 11, 26, 30.00000000000000000, #43 ) ;
#188 = DIRECTION ( 'NONE',  ( 0.000000000000000000, 0.000000000000000000, 1.000000000000000000 ) ) ;
#189 = CC_DESIGN_PERSON_AND_ORGANIZATION_ASSIGNMENT ( #236, #254, ( #200 ) ) ;
#190 = CARTESIAN_POINT ( 'NONE',  ( 20.00000000000000000, 2.449293598294706513E-15, 0.000000000000000000 ) ) ;
#191 = DATE_AND_TIME ( #136, #187 ) ;
#192 = ORIENTED_EDGE ( 'NONE', *, *, #54, .T. ) ;
#193 = ORIENTED_EDGE ( 'NONE', *, *, #10, .T. ) ;
#194 = AXIS2_PLACEMENT_3D ( 'NONE', #96, #166, #14 ) ;
#195 = VECTOR ( 'NONE', #123, 1000.000000000000000 ) ;
#196 = ADVANCED_FACE ( 'NONE', ( #33 ), #152, .F. ) ;
#197 = VERTEX_POINT ( 'NONE', #201 ) ;
#198 = DIRECTION ( 'NONE',  ( 1.000000000000000000, 0.000000000000000000, 0.000000000000000000 ) ) ;
#199 = CARTESIAN_POINT ( 'NONE',  ( 16.00000000000000000, 1.959434878635765131E-15, 250.0000000000000000 ) ) ;
#200 = PRODUCT_DEFINITION_FORMATION_WITH_SPECIFIED_SOURCE ( 'LIBOVOLNÝ', '', #48, .NOT_KNOWN. ) ;
#201 = CARTESIAN_POINT ( 'NONE',  ( 16.00000000000000000, 1.959434878635765131E-15, 10.00000000000000000 ) ) ;
#202 = CARTESIAN_POINT ( 'NONE',  ( 0.000000000000000000, 0.000000000000000000, 10.00000000000000000 ) ) ;
#203 = PERSON_AND_ORGANIZATION ( #232, #28 ) ;
#204 = DATE_AND_TIME ( #119, #100 ) ;
#205 = APPLICATION_CONTEXT ( 'configuration controlled 3d designs of mechanical parts and assemblies' ) ;
#206 = DATE_TIME_ROLE ( 'creation_date' ) ;
#207 = EDGE_LOOP ( 'NONE', ( #103, #24, #193, #109 ) ) ;
#208 = AXIS2_PLACEMENT_3D ( 'NONE', #94, #112, #9 ) ;
#209 = CC_DESIGN_APPROVAL ( #3, ( #53 ) ) ;
#210 = ORIENTED_EDGE ( 'NONE', *, *, #88, .T. ) ;
#211 = VERTEX_POINT ( 'NONE', #190 ) ;
#212 = APPROVAL_ROLE ( '' ) ;
#213 = VERTEX_POINT ( 'NONE', #117 ) ;
#214 = CIRCLE ( 'NONE', #27, 20.00000000000000000 ) ;
#215 = ORIENTED_EDGE ( 'NONE', *, *, #18, .F. ) ;
#216 = CARTESIAN_POINT ( 'NONE',  ( -16.00000000000000000, 0.000000000000000000, 250.0000000000000000 ) ) ;
#217 = AXIS2_PLACEMENT_3D ( 'NONE', #220, #183, #55 ) ;
#218 = CC_DESIGN_SECURITY_CLASSIFICATION ( #53, ( #200 ) ) ;
#219 = CARTESIAN_POINT ( 'NONE',  ( 16.00000000000000000, 1.959434878635765131E-15, 250.0000000000000000 ) ) ;
#220 = CARTESIAN_POINT ( 'NONE',  ( 0.000000000000000000, 0.000000000000000000, 10.00000000000000000 ) ) ;
#221 = LINE ( 'NONE', #199, #160 ) ;
#222 = CC_DESIGN_PERSON_AND_ORGANIZATION_ASSIGNMENT ( #148, #35, ( #182 ) ) ;
#223 = AXIS2_PLACEMENT_3D ( 'NONE', #92, #91, #178 ) ;
#224 = APPROVAL_STATUS ( 'not_yet_approved' ) ;
#225 = COORDINATED_UNIVERSAL_TIME_OFFSET ( 1, 0, .AHEAD. ) ;
#226 = VERTEX_POINT ( 'NONE', #77 ) ;
#227 = LOCAL_TIME ( 11, 26, 30.00000000000000000, #131 ) ;
#228 = CARTESIAN_POINT ( 'NONE',  ( 0.000000000000000000, 0.000000000000000000, 0.000000000000000000 ) ) ;
#229 = EDGE_LOOP ( 'NONE', ( #66, #6 ) ) ;
#230 = APPROVAL_STATUS ( 'not_yet_approved' ) ;
#231 = ORIENTED_EDGE ( 'NONE', *, *, #137, .T. ) ;
#232 = PERSON ( 'NEURÈENÝ', 'NEURÈENÝ', 'NEURÈENÝ', ('NEURÈENÝ'), ('NEURÈENÝ'), ('NEURÈENÝ') ) ;
#233 = COORDINATED_UNIVERSAL_TIME_OFFSET ( 1, 0, .AHEAD. ) ;
#234 = EDGE_LOOP ( 'NONE', ( #174, #176 ) ) ;
#235 = CIRCLE ( 'NONE', #85, 20.00000000000000000 ) ;
#236 = PERSON_AND_ORGANIZATION ( #232, #28 ) ;
#237 = VERTEX_POINT ( 'NONE', #59 ) ;
#238 = EDGE_CURVE ( 'NONE', #138, #84, #73, .T. ) ;
#239 = CARTESIAN_POINT ( 'NONE',  ( -16.00000000000000000, 0.000000000000000000, 250.0000000000000000 ) ) ;
#240 = CARTESIAN_POINT ( 'NONE',  ( -20.00000000000000000, 0.000000000000000000, 10.00000000000000000 ) ) ;
#241 = AXIS2_PLACEMENT_3D ( 'NONE', #25, #29, #72 ) ;
#242 = AXIS2_PLACEMENT_3D ( 'NONE', #56, #126, #198 ) ;
#243 = DIRECTION ( 'NONE',  ( -0.000000000000000000, -0.000000000000000000, -1.000000000000000000 ) ) ;
#244 = DIRECTION ( 'NONE',  ( 0.000000000000000000, 0.000000000000000000, 1.000000000000000000 ) ) ;
#245 = CARTESIAN_POINT ( 'NONE',  ( 0.000000000000000000, 0.000000000000000000, 250.0000000000000000 ) ) ;
#246 = CC_DESIGN_APPROVAL ( #37, ( #200 ) ) ;
#247 = DIRECTION ( 'NONE',  ( 0.000000000000000000, 0.000000000000000000, 1.000000000000000000 ) ) ;
#248 = DESIGN_CONTEXT ( 'detailed design', #113, 'design' ) ;
#249 = CARTESIAN_POINT ( 'NONE',  ( 0.000000000000000000, 0.000000000000000000, 0.000000000000000000 ) ) ;
#250 = DATE_AND_TIME ( #60, #227 ) ;
#251 = ADVANCED_FACE ( 'NONE', ( #17, #102 ), #186, .T. ) ;
#252 = DIRECTION ( 'NONE',  ( 0.000000000000000000, 0.000000000000000000, 1.000000000000000000 ) ) ;
#253 = DIRECTION ( 'NONE',  ( 0.000000000000000000, 0.000000000000000000, 1.000000000000000000 ) ) ;
#254 = PERSON_AND_ORGANIZATION_ROLE ( 'creator' ) ;
#255 = CC_DESIGN_PERSON_AND_ORGANIZATION_ASSIGNMENT ( #158, #41, ( #53 ) ) ;
ENDSEC;
END-ISO-10303-21;
