ISO-10303-21;
HEADER;
FILE_DESCRIPTION (( 'STEP AP203' ),
    '1' );
FILE_NAME ('242b.STEP',
    '2023-02-12T12:10:28',
    ( '' ),
    ( '' ),
    'SwSTEP 2.0',
    'SolidWorks 2019',
    '' );
FILE_SCHEMA (( 'CONFIG_CONTROL_DESIGN' ));
ENDSEC;

DATA;
#1 = CYLINDRICAL_SURFACE ( 'NONE', #192, 6.000000000000000888 ) ;
#2 = COORDINATED_UNIVERSAL_TIME_OFFSET ( 1, 0, .AHEAD. ) ;
#3 = DIRECTION ( 'NONE',  ( 1.000000000000000000, 0.000000000000000000, 0.000000000000000000 ) ) ;
#4 = CALENDAR_DATE ( 2023, 12, 2 ) ;
#5 = ORIENTED_EDGE ( 'NONE', *, *, #241, .T. ) ;
#6 = PLANE ( 'NONE',  #191 ) ;
#7 = CIRCLE ( 'NONE', #112, 6.000000000000000888 ) ;
#8 = PLANE ( 'NONE',  #105 ) ;
#9 = CC_DESIGN_DATE_AND_TIME_ASSIGNMENT ( #104, #245, ( #236 ) ) ;
#10 = PERSON_AND_ORGANIZATION ( #152, #27 ) ;
#11 = ORIENTED_EDGE ( 'NONE', *, *, #151, .F. ) ;
#12 = EDGE_CURVE ( 'NONE', #247, #53, #98, .T. ) ;
#13 = AXIS2_PLACEMENT_3D ( 'NONE', #159, #161, #235 ) ;
#14 = VERTEX_POINT ( 'NONE', #54 ) ;
#15 = EDGE_CURVE ( 'NONE', #163, #90, #7, .T. ) ;
#16 = CC_DESIGN_PERSON_AND_ORGANIZATION_ASSIGNMENT ( #195, #82, ( #116 ) ) ;
#17 = CARTESIAN_POINT ( 'NONE',  ( 0.000000000000000000, 0.000000000000000000, 315.0000000000000000 ) ) ;
#18 = EDGE_LOOP ( 'NONE', ( #230, #147, #72, #145 ) ) ;
#19 = VECTOR ( 'NONE', #172, 1000.000000000000000 ) ;
#20 = FACE_OUTER_BOUND ( 'NONE', #26, .T. ) ;
#21 =( NAMED_UNIT ( * ) SI_UNIT ( $, .STERADIAN. ) SOLID_ANGLE_UNIT ( ) );
#22 = CYLINDRICAL_SURFACE ( 'NONE', #13, 3.100000000000000089 ) ;
#23 = CALENDAR_DATE ( 2023, 12, 2 ) ;
#24 = CARTESIAN_POINT ( 'NONE',  ( 6.000000000000000888, 7.347880794884120722E-16, 5.000000000000000000 ) ) ;
#25 = LOCAL_TIME ( 13, 10, 28.00000000000000000, #2 ) ;
#26 = EDGE_LOOP ( 'NONE', ( #242, #132, #204, #51 ) ) ;
#27 = ORGANIZATION ( 'NEURÈENÝ', 'NEURÈENÝ', '' ) ;
#28 = CARTESIAN_POINT ( 'NONE',  ( 0.000000000000000000, 0.000000000000000000, 5.000000000000000000 ) ) ;
#29 = PLANE ( 'NONE',  #80 ) ;
#30 = DATE_AND_TIME ( #178, #206 ) ;
#31 = APPROVAL_DATE_TIME ( #207, #75 ) ;
#32 = CARTESIAN_POINT ( 'NONE',  ( 0.000000000000000000, 0.000000000000000000, 315.0000000000000000 ) ) ;
#33 = VECTOR ( 'NONE', #124, 1000.000000000000000 ) ;
#34 = ADVANCED_FACE ( 'NONE', ( #96 ), #29, .T. ) ;
#35 = APPROVAL_PERSON_ORGANIZATION ( #168, #189, #156 ) ;
#36 = UNCERTAINTY_MEASURE_WITH_UNIT (LENGTH_MEASURE( 1.000000000000000082E-05 ), #144, 'distance_accuracy_value', 'NONE');
#37 = ADVANCED_FACE ( 'NONE', ( #46 ), #6, .F. ) ;
#38 = ORIENTED_EDGE ( 'NONE', *, *, #77, .F. ) ;
#39 = CC_DESIGN_PERSON_AND_ORGANIZATION_ASSIGNMENT ( #84, #240, ( #129 ) ) ;
#40 = DIRECTION ( 'NONE',  ( 1.000000000000000000, 0.000000000000000000, 0.000000000000000000 ) ) ;
#41 = LINE ( 'NONE', #137, #231 ) ;
#42 = DIRECTION ( 'NONE',  ( -1.000000000000000000, 0.000000000000000000, 0.000000000000000000 ) ) ;
#43 = DIRECTION ( 'NONE',  ( 0.000000000000000000, 0.000000000000000000, 1.000000000000000000 ) ) ;
#44 = CYLINDRICAL_SURFACE ( 'NONE', #47, 6.000000000000000888 ) ;
#45 = APPROVAL_STATUS ( 'not_yet_approved' ) ;
#46 = FACE_OUTER_BOUND ( 'NONE', #179, .T. ) ;
#47 = AXIS2_PLACEMENT_3D ( 'NONE', #58, #214, #42 ) ;
#48 = CIRCLE ( 'NONE', #184, 6.000000000000000888 ) ;
#49 = ORIENTED_EDGE ( 'NONE', *, *, #57, .T. ) ;
#50 = APPROVAL_STATUS ( 'not_yet_approved' ) ;
#51 = ORIENTED_EDGE ( 'NONE', *, *, #106, .T. ) ;
#52 = COORDINATED_UNIVERSAL_TIME_OFFSET ( 1, 0, .AHEAD. ) ;
#53 = VERTEX_POINT ( 'NONE', #164 ) ;
#54 = CARTESIAN_POINT ( 'NONE',  ( -3.100000000000000089, 0.000000000000000000, 5.000000000000000000 ) ) ;
#55 =( GEOMETRIC_REPRESENTATION_CONTEXT ( 3 ) GLOBAL_UNCERTAINTY_ASSIGNED_CONTEXT ( ( #36 ) ) GLOBAL_UNIT_ASSIGNED_CONTEXT ( ( #144, #95, #21 ) ) REPRESENTATION_CONTEXT ( 'NONE', 'WORKASPACE' ) );
#56 = ADVANCED_FACE ( 'NONE', ( #126, #203 ), #8, .T. ) ;
#57 = EDGE_CURVE ( 'NONE', #224, #14, #221, .T. ) ;
#58 = CARTESIAN_POINT ( 'NONE',  ( 0.000000000000000000, 0.000000000000000000, 5.000000000000000000 ) ) ;
#59 = CARTESIAN_POINT ( 'NONE',  ( 0.000000000000000000, 0.000000000000000000, 5.000000000000000000 ) ) ;
#60 = SECURITY_CLASSIFICATION_LEVEL ( 'unclassified' ) ;
#61 = DIRECTION ( 'NONE',  ( 1.000000000000000000, 0.000000000000000000, 0.000000000000000000 ) ) ;
#62 = PERSON_AND_ORGANIZATION_ROLE ( 'creator' ) ;
#63 = CARTESIAN_POINT ( 'NONE',  ( 0.000000000000000000, 0.000000000000000000, 0.000000000000000000 ) ) ;
#64 = MECHANICAL_CONTEXT ( 'NONE', #187, 'mechanical' ) ;
#65 = ORIENTED_EDGE ( 'NONE', *, *, #151, .T. ) ;
#66 = DIRECTION ( 'NONE',  ( 0.000000000000000000, 0.000000000000000000, 1.000000000000000000 ) ) ;
#67 = EDGE_CURVE ( 'NONE', #14, #224, #251, .T. ) ;
#68 = SHAPE_DEFINITION_REPRESENTATION ( #93, #138 ) ;
#69 = CARTESIAN_POINT ( 'NONE',  ( 0.000000000000000000, 0.000000000000000000, 5.000000000000000000 ) ) ;
#70 = DATE_TIME_ROLE ( 'creation_date' ) ;
#71 = EDGE_LOOP ( 'NONE', ( #115, #5 ) ) ;
#72 = ORIENTED_EDGE ( 'NONE', *, *, #77, .T. ) ;
#73 = COORDINATED_UNIVERSAL_TIME_OFFSET ( 1, 0, .AHEAD. ) ;
#74 = ORIENTED_EDGE ( 'NONE', *, *, #106, .F. ) ;
#75 = APPROVAL ( #148, 'NEURÈENÝ' ) ;
#76 = CIRCLE ( 'NONE', #170, 6.000000000000000888 ) ;
#77 = EDGE_CURVE ( 'NONE', #225, #78, #76, .T. ) ;
#78 = VERTEX_POINT ( 'NONE', #154 ) ;
#79 = LINE ( 'NONE', #86, #33 ) ;
#80 = AXIS2_PLACEMENT_3D ( 'NONE', #94, #146, #150 ) ;
#81 = CARTESIAN_POINT ( 'NONE',  ( 6.000000000000000888, 7.347880794884120722E-16, 0.000000000000000000 ) ) ;
#82 = PERSON_AND_ORGANIZATION_ROLE ( 'design_supplier' ) ;
#83 = DIRECTION ( 'NONE',  ( 0.000000000000000000, 0.000000000000000000, 1.000000000000000000 ) ) ;
#84 = PERSON_AND_ORGANIZATION ( #152, #27 ) ;
#85 = CC_DESIGN_PERSON_AND_ORGANIZATION_ASSIGNMENT ( #113, #140, ( #116 ) ) ;
#86 = CARTESIAN_POINT ( 'NONE',  ( -3.100000000000000089, 0.000000000000000000, 315.0000000000000000 ) ) ;
#87 = CALENDAR_DATE ( 2023, 12, 2 ) ;
#88 = DIRECTION ( 'NONE',  ( -0.000000000000000000, -0.000000000000000000, -1.000000000000000000 ) ) ;
#89 = ADVANCED_FACE ( 'NONE', ( #218 ), #44, .T. ) ;
#90 = VERTEX_POINT ( 'NONE', #139 ) ;
#91 = EDGE_CURVE ( 'NONE', #90, #78, #122, .T. ) ;
#92 = CARTESIAN_POINT ( 'NONE',  ( 0.000000000000000000, 0.000000000000000000, 0.000000000000000000 ) ) ;
#93 = PRODUCT_DEFINITION_SHAPE ( 'NONE', 'NONE',  #99 ) ;
#94 = CARTESIAN_POINT ( 'NONE',  ( 0.000000000000000000, 0.000000000000000000, 315.0000000000000000 ) ) ;
#95 =( NAMED_UNIT ( * ) PLANE_ANGLE_UNIT ( ) SI_UNIT ( $, .RADIAN. ) );
#96 = FACE_OUTER_BOUND ( 'NONE', #71, .T. ) ;
#97 = AXIS2_PLACEMENT_3D ( 'NONE', #243, #213, #40 ) ;
#98 = CIRCLE ( 'NONE', #212, 3.100000000000000089 ) ;
#99 = PRODUCT_DEFINITION ( 'NEZNÁMÝ', '', #116, #249 ) ;
#100 = CARTESIAN_POINT ( 'NONE',  ( 3.100000000000000089, 3.796405077356794918E-16, 315.0000000000000000 ) ) ;
#101 = DIRECTION ( 'NONE',  ( -1.000000000000000000, 0.000000000000000000, 0.000000000000000000 ) ) ;
#102 = PERSON_AND_ORGANIZATION_ROLE ( 'classification_officer' ) ;
#103 = CARTESIAN_POINT ( 'NONE',  ( 0.000000000000000000, 0.000000000000000000, 5.000000000000000000 ) ) ;
#104 = DATE_AND_TIME ( #23, #25 ) ;
#105 = AXIS2_PLACEMENT_3D ( 'NONE', #28, #180, #198 ) ;
#106 = EDGE_CURVE ( 'NONE', #78, #225, #153, .T. ) ;
#107 = CLOSED_SHELL ( 'NONE', ( #188, #89, #135, #56, #37, #108, #34 ) ) ;
#108 = ADVANCED_FACE ( 'NONE', ( #157 ), #253, .T. ) ;
#109 = ORIENTED_EDGE ( 'NONE', *, *, #15, .T. ) ;
#110 = ORIENTED_EDGE ( 'NONE', *, *, #67, .T. ) ;
#111 = ORIENTED_EDGE ( 'NONE', *, *, #12, .F. ) ;
#112 = AXIS2_PLACEMENT_3D ( 'NONE', #69, #66, #183 ) ;
#113 = PERSON_AND_ORGANIZATION ( #152, #27 ) ;
#114 = DIRECTION ( 'NONE',  ( 0.000000000000000000, 0.000000000000000000, 1.000000000000000000 ) ) ;
#115 = ORIENTED_EDGE ( 'NONE', *, *, #12, .T. ) ;
#116 = PRODUCT_DEFINITION_FORMATION_WITH_SPECIFIED_SOURCE ( 'LIBOVOLNÝ', '', #129, .NOT_KNOWN. ) ;
#117 = CARTESIAN_POINT ( 'NONE',  ( 0.000000000000000000, 0.000000000000000000, 0.000000000000000000 ) ) ;
#118 = APPROVAL ( #50, 'NEURÈENÝ' ) ;
#119 = DIRECTION ( 'NONE',  ( 0.000000000000000000, 0.000000000000000000, 1.000000000000000000 ) ) ;
#120 = AXIS2_PLACEMENT_3D ( 'NONE', #59, #233, #141 ) ;
#121 = PERSON_AND_ORGANIZATION ( #152, #27 ) ;
#122 = LINE ( 'NONE', #254, #248 ) ;
#123 = APPROVAL_ROLE ( '' ) ;
#124 = DIRECTION ( 'NONE',  ( -0.000000000000000000, -0.000000000000000000, -1.000000000000000000 ) ) ;
#125 = PERSON_AND_ORGANIZATION ( #152, #27 ) ;
#126 = FACE_BOUND ( 'NONE', #220, .T. ) ;
#127 = DIRECTION ( 'NONE',  ( 1.000000000000000000, 0.000000000000000000, 0.000000000000000000 ) ) ;
#128 = EDGE_LOOP ( 'NONE', ( #149, #185, #49, #11 ) ) ;
#129 = PRODUCT ( '242b', '242b', '', ( #64 ) ) ;
#130 = PERSON_AND_ORGANIZATION ( #152, #27 ) ;
#131 = DATE_AND_TIME ( #4, #215 ) ;
#132 = ORIENTED_EDGE ( 'NONE', *, *, #200, .F. ) ;
#133 = CC_DESIGN_PERSON_AND_ORGANIZATION_ASSIGNMENT ( #125, #62, ( #99 ) ) ;
#134 = EDGE_CURVE ( 'NONE', #163, #225, #41, .T. ) ;
#135 = ADVANCED_FACE ( 'NONE', ( #20 ), #1, .T. ) ;
#136 = CC_DESIGN_APPROVAL ( #189, ( #99 ) ) ;
#137 = CARTESIAN_POINT ( 'NONE',  ( 6.000000000000000888, 7.347880794884120722E-16, 5.000000000000000000 ) ) ;
#138 = ADVANCED_BREP_SHAPE_REPRESENTATION ( '242b', ( #202, #186 ), #55 ) ;
#139 = CARTESIAN_POINT ( 'NONE',  ( -6.000000000000000888, 0.000000000000000000, 5.000000000000000000 ) ) ;
#140 = PERSON_AND_ORGANIZATION_ROLE ( 'creator' ) ;
#141 = DIRECTION ( 'NONE',  ( 1.000000000000000000, 0.000000000000000000, 0.000000000000000000 ) ) ;
#142 = COORDINATED_UNIVERSAL_TIME_OFFSET ( 1, 0, .AHEAD. ) ;
#143 = DIRECTION ( 'NONE',  ( 1.000000000000000000, 0.000000000000000000, 0.000000000000000000 ) ) ;
#144 =( LENGTH_UNIT ( ) NAMED_UNIT ( * ) SI_UNIT ( .MILLI., .METRE. ) );
#145 = ORIENTED_EDGE ( 'NONE', *, *, #91, .F. ) ;
#146 = DIRECTION ( 'NONE',  ( 0.000000000000000000, 0.000000000000000000, 1.000000000000000000 ) ) ;
#147 = ORIENTED_EDGE ( 'NONE', *, *, #134, .T. ) ;
#148 = APPROVAL_STATUS ( 'not_yet_approved' ) ;
#149 = ORIENTED_EDGE ( 'NONE', *, *, #241, .F. ) ;
#150 = DIRECTION ( 'NONE',  ( 1.000000000000000000, 0.000000000000000000, -0.000000000000000000 ) ) ;
#151 = EDGE_CURVE ( 'NONE', #247, #14, #79, .T. ) ;
#152 = PERSON ( 'NEURÈENÝ', 'NEURÈENÝ', 'NEURÈENÝ', ('NEURÈENÝ'), ('NEURÈENÝ'), ('NEURÈENÝ') ) ;
#153 = CIRCLE ( 'NONE', #169, 6.000000000000000888 ) ;
#154 = CARTESIAN_POINT ( 'NONE',  ( -6.000000000000000888, 0.000000000000000000, 0.000000000000000000 ) ) ;
#155 = CARTESIAN_POINT ( 'NONE',  ( 0.000000000000000000, 0.000000000000000000, 315.0000000000000000 ) ) ;
#156 = APPROVAL_ROLE ( '' ) ;
#157 = FACE_OUTER_BOUND ( 'NONE', #223, .T. ) ;
#158 = COORDINATED_UNIVERSAL_TIME_OFFSET ( 1, 0, .AHEAD. ) ;
#159 = CARTESIAN_POINT ( 'NONE',  ( 0.000000000000000000, 0.000000000000000000, 315.0000000000000000 ) ) ;
#160 = CARTESIAN_POINT ( 'NONE',  ( 0.000000000000000000, 0.000000000000000000, 0.000000000000000000 ) ) ;
#161 = DIRECTION ( 'NONE',  ( -0.000000000000000000, -0.000000000000000000, -1.000000000000000000 ) ) ;
#162 = DIRECTION ( 'NONE',  ( 1.000000000000000000, 0.000000000000000000, 0.000000000000000000 ) ) ;
#163 = VERTEX_POINT ( 'NONE', #24 ) ;
#164 = CARTESIAN_POINT ( 'NONE',  ( 3.100000000000000089, 3.796405077356794918E-16, 315.0000000000000000 ) ) ;
#165 = AXIS2_PLACEMENT_3D ( 'NONE', #155, #83, #219 ) ;
#166 = ORIENTED_EDGE ( 'NONE', *, *, #67, .F. ) ;
#167 = ORIENTED_EDGE ( 'NONE', *, *, #200, .T. ) ;
#168 = PERSON_AND_ORGANIZATION ( #152, #27 ) ;
#169 = AXIS2_PLACEMENT_3D ( 'NONE', #63, #119, #143 ) ;
#170 = AXIS2_PLACEMENT_3D ( 'NONE', #117, #238, #3 ) ;
#171 = CC_DESIGN_SECURITY_CLASSIFICATION ( #236, ( #116 ) ) ;
#172 = DIRECTION ( 'NONE',  ( -0.000000000000000000, -0.000000000000000000, -1.000000000000000000 ) ) ;
#173 = CARTESIAN_POINT ( 'NONE',  ( 0.000000000000000000, 0.000000000000000000, 5.000000000000000000 ) ) ;
#174 = APPLICATION_PROTOCOL_DEFINITION ( 'international standard', 'config_control_design', 1994, #187 ) ;
#175 = CARTESIAN_POINT ( 'NONE',  ( 3.100000000000000089, 3.796405077356794918E-16, 5.000000000000000000 ) ) ;
#176 = CC_DESIGN_APPROVAL ( #118, ( #236 ) ) ;
#177 = DIRECTION ( 'NONE',  ( -1.000000000000000000, 0.000000000000000000, 0.000000000000000000 ) ) ;
#178 = CALENDAR_DATE ( 2023, 12, 2 ) ;
#179 = EDGE_LOOP ( 'NONE', ( #74, #38 ) ) ;
#180 = DIRECTION ( 'NONE',  ( 0.000000000000000000, 0.000000000000000000, 1.000000000000000000 ) ) ;
#181 = PRODUCT_RELATED_PRODUCT_CATEGORY ( 'detail', '', ( #129 ) ) ;
#182 = DIRECTION ( 'NONE',  ( 1.000000000000000000, 0.000000000000000000, -0.000000000000000000 ) ) ;
#183 = DIRECTION ( 'NONE',  ( 1.000000000000000000, 0.000000000000000000, 0.000000000000000000 ) ) ;
#184 = AXIS2_PLACEMENT_3D ( 'NONE', #173, #232, #61 ) ;
#185 = ORIENTED_EDGE ( 'NONE', *, *, #210, .T. ) ;
#186 = AXIS2_PLACEMENT_3D ( 'NONE', #160, #43, #162 ) ;
#187 = APPLICATION_CONTEXT ( 'configuration controlled 3d designs of mechanical parts and assemblies' ) ;
#188 = ADVANCED_FACE ( 'NONE', ( #239 ), #22, .T. ) ;
#189 = APPROVAL ( #45, 'NEURÈENÝ' ) ;
#190 = DIRECTION ( 'NONE',  ( -0.000000000000000000, -0.000000000000000000, -1.000000000000000000 ) ) ;
#191 = AXIS2_PLACEMENT_3D ( 'NONE', #92, #244, #182 ) ;
#192 = AXIS2_PLACEMENT_3D ( 'NONE', #103, #88, #101 ) ;
#193 = DIRECTION ( 'NONE',  ( -0.000000000000000000, -0.000000000000000000, -1.000000000000000000 ) ) ;
#194 = DIRECTION ( 'NONE',  ( -0.000000000000000000, -0.000000000000000000, -1.000000000000000000 ) ) ;
#195 = PERSON_AND_ORGANIZATION ( #152, #27 ) ;
#196 = CARTESIAN_POINT ( 'NONE',  ( -3.100000000000000089, 0.000000000000000000, 315.0000000000000000 ) ) ;
#197 = APPROVAL_PERSON_ORGANIZATION ( #10, #75, #123 ) ;
#198 = DIRECTION ( 'NONE',  ( 1.000000000000000000, 0.000000000000000000, -0.000000000000000000 ) ) ;
#199 = AXIS2_PLACEMENT_3D ( 'NONE', #17, #194, #177 ) ;
#200 = EDGE_CURVE ( 'NONE', #90, #163, #48, .T. ) ;
#201 = APPROVAL_DATE_TIME ( #30, #118 ) ;
#202 = MANIFOLD_SOLID_BREP ( 'Pøidat vysunutím3', #107 ) ;
#203 = FACE_OUTER_BOUND ( 'NONE', #208, .T. ) ;
#204 = ORIENTED_EDGE ( 'NONE', *, *, #91, .T. ) ;
#205 = APPROVAL_ROLE ( '' ) ;
#206 = LOCAL_TIME ( 13, 10, 28.00000000000000000, #73 ) ;
#207 = DATE_AND_TIME ( #87, #211 ) ;
#208 = EDGE_LOOP ( 'NONE', ( #167, #109 ) ) ;
#209 = APPLICATION_CONTEXT ( 'configuration controlled 3d designs of mechanical parts and assemblies' ) ;
#210 = EDGE_CURVE ( 'NONE', #53, #224, #255, .T. ) ;
#211 = LOCAL_TIME ( 13, 10, 28.00000000000000000, #52 ) ;
#212 = AXIS2_PLACEMENT_3D ( 'NONE', #32, #114, #127 ) ;
#213 = DIRECTION ( 'NONE',  ( 0.000000000000000000, 0.000000000000000000, 1.000000000000000000 ) ) ;
#214 = DIRECTION ( 'NONE',  ( -0.000000000000000000, -0.000000000000000000, -1.000000000000000000 ) ) ;
#215 = LOCAL_TIME ( 13, 10, 28.00000000000000000, #142 ) ;
#216 = APPLICATION_PROTOCOL_DEFINITION ( 'international standard', 'config_control_design', 1994, #209 ) ;
#217 = CC_DESIGN_PERSON_AND_ORGANIZATION_ASSIGNMENT ( #121, #102, ( #236 ) ) ;
#218 = FACE_OUTER_BOUND ( 'NONE', #18, .T. ) ;
#219 = DIRECTION ( 'NONE',  ( 1.000000000000000000, 0.000000000000000000, 0.000000000000000000 ) ) ;
#220 = EDGE_LOOP ( 'NONE', ( #166, #227 ) ) ;
#221 = CIRCLE ( 'NONE', #97, 3.100000000000000089 ) ;
#222 = ORIENTED_EDGE ( 'NONE', *, *, #210, .F. ) ;
#223 = EDGE_LOOP ( 'NONE', ( #222, #111, #65, #110 ) ) ;
#224 = VERTEX_POINT ( 'NONE', #175 ) ;
#225 = VERTEX_POINT ( 'NONE', #81 ) ;
#226 = LOCAL_TIME ( 13, 10, 28.00000000000000000, #158 ) ;
#227 = ORIENTED_EDGE ( 'NONE', *, *, #57, .F. ) ;
#228 = CC_DESIGN_DATE_AND_TIME_ASSIGNMENT ( #131, #70, ( #99 ) ) ;
#229 = CIRCLE ( 'NONE', #165, 3.100000000000000089 ) ;
#230 = ORIENTED_EDGE ( 'NONE', *, *, #15, .F. ) ;
#231 = VECTOR ( 'NONE', #193, 1000.000000000000000 ) ;
#232 = DIRECTION ( 'NONE',  ( 0.000000000000000000, 0.000000000000000000, 1.000000000000000000 ) ) ;
#233 = DIRECTION ( 'NONE',  ( 0.000000000000000000, 0.000000000000000000, 1.000000000000000000 ) ) ;
#234 = DATE_AND_TIME ( #246, #226 ) ;
#235 = DIRECTION ( 'NONE',  ( -1.000000000000000000, 0.000000000000000000, 0.000000000000000000 ) ) ;
#236 = SECURITY_CLASSIFICATION ( '', '', #60 ) ;
#237 = APPROVAL_DATE_TIME ( #234, #189 ) ;
#238 = DIRECTION ( 'NONE',  ( 0.000000000000000000, 0.000000000000000000, 1.000000000000000000 ) ) ;
#239 = FACE_OUTER_BOUND ( 'NONE', #128, .T. ) ;
#240 = PERSON_AND_ORGANIZATION_ROLE ( 'design_owner' ) ;
#241 = EDGE_CURVE ( 'NONE', #53, #247, #229, .T. ) ;
#242 = ORIENTED_EDGE ( 'NONE', *, *, #134, .F. ) ;
#243 = CARTESIAN_POINT ( 'NONE',  ( 0.000000000000000000, 0.000000000000000000, 5.000000000000000000 ) ) ;
#244 = DIRECTION ( 'NONE',  ( 0.000000000000000000, 0.000000000000000000, 1.000000000000000000 ) ) ;
#245 = DATE_TIME_ROLE ( 'classification_date' ) ;
#246 = CALENDAR_DATE ( 2023, 12, 2 ) ;
#247 = VERTEX_POINT ( 'NONE', #196 ) ;
#248 = VECTOR ( 'NONE', #190, 1000.000000000000000 ) ;
#249 = DESIGN_CONTEXT ( 'detailed design', #209, 'design' ) ;
#250 = CC_DESIGN_APPROVAL ( #75, ( #116 ) ) ;
#251 = CIRCLE ( 'NONE', #120, 3.100000000000000089 ) ;
#252 = APPROVAL_PERSON_ORGANIZATION ( #130, #118, #205 ) ;
#253 = CYLINDRICAL_SURFACE ( 'NONE', #199, 3.100000000000000089 ) ;
#254 = CARTESIAN_POINT ( 'NONE',  ( -6.000000000000000888, 0.000000000000000000, 5.000000000000000000 ) ) ;
#255 = LINE ( 'NONE', #100, #19 ) ;
ENDSEC;
END-ISO-10303-21;
