ISO-10303-21;
HEADER;
FILE_DESCRIPTION (( 'STEP AP203' ),
    '1' );
FILE_NAME ('5d88.STEP',
    '2023-02-12T12:17:39',
    ( '' ),
    ( '' ),
    'SwSTEP 2.0',
    'SolidWorks 2019',
    '' );
FILE_SCHEMA (( 'CONFIG_CONTROL_DESIGN' ));
ENDSEC;

DATA;
#1 = CIRCLE ( 'NONE', #140, 6.000000000000000888 ) ;
#2 = CARTESIAN_POINT ( 'NONE',  ( 0.000000000000000000, 0.000000000000000000, 5.000000000000000000 ) ) ;
#3 = CARTESIAN_POINT ( 'NONE',  ( 0.000000000000000000, 0.000000000000000000, 1000.000000000000000 ) ) ;
#4 = FACE_OUTER_BOUND ( 'NONE', #13, .T. ) ;
#5 = DIRECTION ( 'NONE',  ( 0.000000000000000000, 0.000000000000000000, 1.000000000000000000 ) ) ;
#6 = VECTOR ( 'NONE', #91, 1000.000000000000000 ) ;
#7 = PRODUCT ( '5d88', '5d88', '', ( #175 ) ) ;
#8 = APPROVAL_ROLE ( '' ) ;
#9 = COORDINATED_UNIVERSAL_TIME_OFFSET ( 1, 0, .AHEAD. ) ;
#10 = CALENDAR_DATE ( 2023, 12, 2 ) ;
#11 = VECTOR ( 'NONE', #76, 1000.000000000000000 ) ;
#12 = ADVANCED_FACE ( 'NONE', ( #16 ), #73, .T. ) ;
#13 = EDGE_LOOP ( 'NONE', ( #67, #202 ) ) ;
#14 = ORIENTED_EDGE ( 'NONE', *, *, #65, .T. ) ;
#15 = DIRECTION ( 'NONE',  ( 0.000000000000000000, 0.000000000000000000, 1.000000000000000000 ) ) ;
#16 = FACE_OUTER_BOUND ( 'NONE', #49, .T. ) ;
#17 = CARTESIAN_POINT ( 'NONE',  ( 0.000000000000000000, 0.000000000000000000, 5.000000000000000000 ) ) ;
#18 = DIRECTION ( 'NONE',  ( 1.000000000000000000, 0.000000000000000000, 0.000000000000000000 ) ) ;
#19 = CLOSED_SHELL ( 'NONE', ( #12, #118, #21, #126, #82, #38, #106 ) ) ;
#20 = LOCAL_TIME ( 13, 17, 39.00000000000000000, #138 ) ;
#21 = ADVANCED_FACE ( 'NONE', ( #54 ), #113, .T. ) ;
#22 = DIRECTION ( 'NONE',  ( 1.000000000000000000, 0.000000000000000000, -0.000000000000000000 ) ) ;
#23 = FACE_BOUND ( 'NONE', #103, .T. ) ;
#24 = EDGE_LOOP ( 'NONE', ( #84, #205, #127, #159 ) ) ;
#25 = PERSON_AND_ORGANIZATION_ROLE ( 'design_supplier' ) ;
#26 = APPLICATION_CONTEXT ( 'configuration controlled 3d designs of mechanical parts and assemblies' ) ;
#27 = PERSON_AND_ORGANIZATION_ROLE ( 'creator' ) ;
#28 = PRODUCT_DEFINITION ( 'NEZNÁMÝ', '', #156, #181 ) ;
#29 = EDGE_CURVE ( 'NONE', #86, #177, #92, .T. ) ;
#30 = CIRCLE ( 'NONE', #183, 3.000000000000000444 ) ;
#31 = ORIENTED_EDGE ( 'NONE', *, *, #151, .T. ) ;
#32 = PERSON ( 'NEURÈENÝ', 'NEURÈENÝ', 'NEURÈENÝ', ('NEURÈENÝ'), ('NEURÈENÝ'), ('NEURÈENÝ') ) ;
#33 = VERTEX_POINT ( 'NONE', #235 ) ;
#34 = DIRECTION ( 'NONE',  ( 0.000000000000000000, 0.000000000000000000, 1.000000000000000000 ) ) ;
#35 = DIRECTION ( 'NONE',  ( 1.000000000000000000, 0.000000000000000000, 0.000000000000000000 ) ) ;
#36 = DIRECTION ( 'NONE',  ( -1.000000000000000000, 0.000000000000000000, 0.000000000000000000 ) ) ;
#37 = SHAPE_DEFINITION_REPRESENTATION ( #221, #197 ) ;
#38 = ADVANCED_FACE ( 'NONE', ( #132 ), #169, .T. ) ;
#39 = APPROVAL_PERSON_ORGANIZATION ( #176, #229, #227 ) ;
#40 = FACE_OUTER_BOUND ( 'NONE', #146, .T. ) ;
#41 = CARTESIAN_POINT ( 'NONE',  ( 3.000000000000000444, 3.673940397442059868E-16, 1000.000000000000000 ) ) ;
#42 = DIRECTION ( 'NONE',  ( 0.000000000000000000, 0.000000000000000000, 1.000000000000000000 ) ) ;
#43 = AXIS2_PLACEMENT_3D ( 'NONE', #17, #75, #170 ) ;
#44 = PERSON_AND_ORGANIZATION_ROLE ( 'design_owner' ) ;
#45 = PERSON_AND_ORGANIZATION_ROLE ( 'creator' ) ;
#46 = DATE_AND_TIME ( #178, #222 ) ;
#47 = CC_DESIGN_DATE_AND_TIME_ASSIGNMENT ( #77, #230, ( #240 ) ) ;
#48 = EDGE_LOOP ( 'NONE', ( #209, #64 ) ) ;
#49 = EDGE_LOOP ( 'NONE', ( #228, #90, #31, #252 ) ) ;
#50 = AXIS2_PLACEMENT_3D ( 'NONE', #112, #215, #95 ) ;
#51 = CC_DESIGN_DATE_AND_TIME_ASSIGNMENT ( #46, #246, ( #28 ) ) ;
#52 = CALENDAR_DATE ( 2023, 12, 2 ) ;
#53 = CARTESIAN_POINT ( 'NONE',  ( 0.000000000000000000, 0.000000000000000000, 1000.000000000000000 ) ) ;
#54 = FACE_OUTER_BOUND ( 'NONE', #24, .T. ) ;
#55 = EDGE_CURVE ( 'NONE', #177, #122, #119, .T. ) ;
#56 = CALENDAR_DATE ( 2023, 12, 2 ) ;
#57 = DIRECTION ( 'NONE',  ( 0.000000000000000000, 0.000000000000000000, 1.000000000000000000 ) ) ;
#58 = DIRECTION ( 'NONE',  ( -0.000000000000000000, -0.000000000000000000, -1.000000000000000000 ) ) ;
#59 = DIRECTION ( 'NONE',  ( 1.000000000000000000, 0.000000000000000000, 0.000000000000000000 ) ) ;
#60 = CARTESIAN_POINT ( 'NONE',  ( -3.000000000000000444, 0.000000000000000000, 1000.000000000000000 ) ) ;
#61 = AXIS2_PLACEMENT_3D ( 'NONE', #173, #5, #22 ) ;
#62 = CYLINDRICAL_SURFACE ( 'NONE', #99, 6.000000000000000888 ) ;
#63 = VECTOR ( 'NONE', #149, 1000.000000000000000 ) ;
#64 = ORIENTED_EDGE ( 'NONE', *, *, #201, .T. ) ;
#65 = EDGE_CURVE ( 'NONE', #247, #122, #150, .T. ) ;
#66 = DATE_AND_TIME ( #10, #249 ) ;
#67 = ORIENTED_EDGE ( 'NONE', *, *, #191, .T. ) ;
#68 = PERSON_AND_ORGANIZATION ( #32, #93 ) ;
#69 = MANIFOLD_SOLID_BREP ( 'Pøidat vysunutím3', #19 ) ;
#70 = ORIENTED_EDGE ( 'NONE', *, *, #136, .F. ) ;
#71 = ORIENTED_EDGE ( 'NONE', *, *, #87, .F. ) ;
#72 = DIRECTION ( 'NONE',  ( 1.000000000000000000, 0.000000000000000000, 0.000000000000000000 ) ) ;
#73 = CYLINDRICAL_SURFACE ( 'NONE', #194, 3.000000000000000444 ) ;
#74 = AXIS2_PLACEMENT_3D ( 'NONE', #255, #193, #18 ) ;
#75 = DIRECTION ( 'NONE',  ( 0.000000000000000000, 0.000000000000000000, 1.000000000000000000 ) ) ;
#76 = DIRECTION ( 'NONE',  ( -0.000000000000000000, -0.000000000000000000, -1.000000000000000000 ) ) ;
#77 = DATE_AND_TIME ( #52, #185 ) ;
#78 = DIRECTION ( 'NONE',  ( -0.000000000000000000, -0.000000000000000000, -1.000000000000000000 ) ) ;
#79 = CARTESIAN_POINT ( 'NONE',  ( -6.000000000000000888, 0.000000000000000000, 5.000000000000000000 ) ) ;
#80 = VECTOR ( 'NONE', #217, 1000.000000000000000 ) ;
#81 =( NAMED_UNIT ( * ) SI_UNIT ( $, .STERADIAN. ) SOLID_ANGLE_UNIT ( ) );
#82 = ADVANCED_FACE ( 'NONE', ( #40 ), #137, .F. ) ;
#83 = APPROVAL_STATUS ( 'not_yet_approved' ) ;
#84 = ORIENTED_EDGE ( 'NONE', *, *, #65, .F. ) ;
#85 = PERSON_AND_ORGANIZATION ( #32, #93 ) ;
#86 = VERTEX_POINT ( 'NONE', #79 ) ;
#87 = EDGE_CURVE ( 'NONE', #33, #107, #204, .T. ) ;
#88 = PRODUCT_RELATED_PRODUCT_CATEGORY ( 'detail', '', ( #7 ) ) ;
#89 = VERTEX_POINT ( 'NONE', #41 ) ;
#90 = ORIENTED_EDGE ( 'NONE', *, *, #136, .T. ) ;
#91 = DIRECTION ( 'NONE',  ( -0.000000000000000000, -0.000000000000000000, -1.000000000000000000 ) ) ;
#92 = LINE ( 'NONE', #171, #11 ) ;
#93 = ORGANIZATION ( 'NEURÈENÝ', 'NEURÈENÝ', '' ) ;
#94 = LINE ( 'NONE', #111, #63 ) ;
#95 = DIRECTION ( 'NONE',  ( -1.000000000000000000, 0.000000000000000000, 0.000000000000000000 ) ) ;
#96 = AXIS2_PLACEMENT_3D ( 'NONE', #155, #219, #218 ) ;
#97 = PLANE ( 'NONE',  #145 ) ;
#98 = FACE_OUTER_BOUND ( 'NONE', #48, .T. ) ;
#99 = AXIS2_PLACEMENT_3D ( 'NONE', #115, #78, #238 ) ;
#100 =( NAMED_UNIT ( * ) PLANE_ANGLE_UNIT ( ) SI_UNIT ( $, .RADIAN. ) );
#101 = EDGE_CURVE ( 'NONE', #86, #247, #164, .T. ) ;
#102 =( LENGTH_UNIT ( ) NAMED_UNIT ( * ) SI_UNIT ( .MILLI., .METRE. ) );
#103 = EDGE_LOOP ( 'NONE', ( #71, #231 ) ) ;
#104 = SECURITY_CLASSIFICATION_LEVEL ( 'unclassified' ) ;
#105 = COORDINATED_UNIVERSAL_TIME_OFFSET ( 1, 0, .AHEAD. ) ;
#106 = ADVANCED_FACE ( 'NONE', ( #4 ), #97, .T. ) ;
#107 = VERTEX_POINT ( 'NONE', #195 ) ;
#108 = VERTEX_POINT ( 'NONE', #60 ) ;
#109 = DIRECTION ( 'NONE',  ( 0.000000000000000000, 0.000000000000000000, 1.000000000000000000 ) ) ;
#110 = CARTESIAN_POINT ( 'NONE',  ( 0.000000000000000000, 0.000000000000000000, 5.000000000000000000 ) ) ;
#111 = CARTESIAN_POINT ( 'NONE',  ( 3.000000000000000444, 3.673940397442059868E-16, 1000.000000000000000 ) ) ;
#112 = CARTESIAN_POINT ( 'NONE',  ( 0.000000000000000000, 0.000000000000000000, 1000.000000000000000 ) ) ;
#113 = CYLINDRICAL_SURFACE ( 'NONE', #199, 6.000000000000000888 ) ;
#114 = CARTESIAN_POINT ( 'NONE',  ( 0.000000000000000000, 0.000000000000000000, 5.000000000000000000 ) ) ;
#115 = CARTESIAN_POINT ( 'NONE',  ( 0.000000000000000000, 0.000000000000000000, 5.000000000000000000 ) ) ;
#116 = CC_DESIGN_PERSON_AND_ORGANIZATION_ASSIGNMENT ( #225, #45, ( #156 ) ) ;
#117 = LOCAL_TIME ( 13, 17, 39.00000000000000000, #245 ) ;
#118 = ADVANCED_FACE ( 'NONE', ( #172 ), #62, .T. ) ;
#119 = CIRCLE ( 'NONE', #74, 6.000000000000000888 ) ;
#120 = DIRECTION ( 'NONE',  ( 1.000000000000000000, 0.000000000000000000, 0.000000000000000000 ) ) ;
#121 = APPLICATION_PROTOCOL_DEFINITION ( 'international standard', 'config_control_design', 1994, #26 ) ;
#122 = VERTEX_POINT ( 'NONE', #196 ) ;
#123 = PERSON_AND_ORGANIZATION ( #32, #93 ) ;
#124 = PERSON_AND_ORGANIZATION ( #32, #93 ) ;
#125 = CC_DESIGN_APPROVAL ( #186, ( #28 ) ) ;
#126 = ADVANCED_FACE ( 'NONE', ( #23, #98 ), #234, .T. ) ;
#127 = ORIENTED_EDGE ( 'NONE', *, *, #29, .T. ) ;
#128 = CIRCLE ( 'NONE', #162, 3.000000000000000444 ) ;
#129 = EDGE_LOOP ( 'NONE', ( #70, #253, #144, #188 ) ) ;
#130 = APPROVAL_ROLE ( '' ) ;
#131 = LINE ( 'NONE', #216, #6 ) ;
#132 = FACE_OUTER_BOUND ( 'NONE', #129, .T. ) ;
#133 = PERSON_AND_ORGANIZATION ( #32, #93 ) ;
#134 = DIRECTION ( 'NONE',  ( 1.000000000000000000, 0.000000000000000000, 0.000000000000000000 ) ) ;
#135 = DIRECTION ( 'NONE',  ( 1.000000000000000000, 0.000000000000000000, -0.000000000000000000 ) ) ;
#136 = EDGE_CURVE ( 'NONE', #89, #107, #94, .T. ) ;
#137 = PLANE ( 'NONE',  #61 ) ;
#138 = COORDINATED_UNIVERSAL_TIME_OFFSET ( 1, 0, .AHEAD. ) ;
#139 = DIRECTION ( 'NONE',  ( 0.000000000000000000, 0.000000000000000000, 1.000000000000000000 ) ) ;
#140 = AXIS2_PLACEMENT_3D ( 'NONE', #147, #109, #192 ) ;
#141 = APPROVAL_DATE_TIME ( #66, #229 ) ;
#142 = PERSON_AND_ORGANIZATION_ROLE ( 'classification_officer' ) ;
#143 = CC_DESIGN_PERSON_AND_ORGANIZATION_ASSIGNMENT ( #123, #25, ( #156 ) ) ;
#144 = ORIENTED_EDGE ( 'NONE', *, *, #242, .T. ) ;
#145 = AXIS2_PLACEMENT_3D ( 'NONE', #239, #42, #135 ) ;
#146 = EDGE_LOOP ( 'NONE', ( #212, #233 ) ) ;
#147 = CARTESIAN_POINT ( 'NONE',  ( 0.000000000000000000, 0.000000000000000000, 0.000000000000000000 ) ) ;
#148 = DIRECTION ( 'NONE',  ( -0.000000000000000000, -0.000000000000000000, -1.000000000000000000 ) ) ;
#149 = DIRECTION ( 'NONE',  ( -0.000000000000000000, -0.000000000000000000, -1.000000000000000000 ) ) ;
#150 = LINE ( 'NONE', #237, #80 ) ;
#151 = EDGE_CURVE ( 'NONE', #107, #33, #248, .T. ) ;
#152 = DIRECTION ( 'NONE',  ( 0.000000000000000000, 0.000000000000000000, 1.000000000000000000 ) ) ;
#153 = APPROVAL_DATE_TIME ( #232, #161 ) ;
#154 = AXIS2_PLACEMENT_3D ( 'NONE', #114, #152, #59 ) ;
#155 = CARTESIAN_POINT ( 'NONE',  ( 0.000000000000000000, 0.000000000000000000, 5.000000000000000000 ) ) ;
#156 = PRODUCT_DEFINITION_FORMATION_WITH_SPECIFIED_SOURCE ( 'LIBOVOLNÝ', '', #7, .NOT_KNOWN. ) ;
#157 = APPROVAL_DATE_TIME ( #203, #186 ) ;
#158 = CALENDAR_DATE ( 2023, 12, 2 ) ;
#159 = ORIENTED_EDGE ( 'NONE', *, *, #55, .T. ) ;
#160 = AXIS2_PLACEMENT_3D ( 'NONE', #241, #139, #120 ) ;
#161 = APPROVAL ( #166, 'NEURÈENÝ' ) ;
#162 = AXIS2_PLACEMENT_3D ( 'NONE', #53, #34, #72 ) ;
#163 = CC_DESIGN_SECURITY_CLASSIFICATION ( #240, ( #156 ) ) ;
#164 = CIRCLE ( 'NONE', #96, 6.000000000000000888 ) ;
#165 = ORIENTED_EDGE ( 'NONE', *, *, #29, .F. ) ;
#166 = APPROVAL_STATUS ( 'not_yet_approved' ) ;
#167 = EDGE_LOOP ( 'NONE', ( #244, #14, #184, #165 ) ) ;
#168 = CARTESIAN_POINT ( 'NONE',  ( -6.000000000000000888, 0.000000000000000000, 0.000000000000000000 ) ) ;
#169 = CYLINDRICAL_SURFACE ( 'NONE', #50, 3.000000000000000444 ) ;
#170 = DIRECTION ( 'NONE',  ( 1.000000000000000000, 0.000000000000000000, -0.000000000000000000 ) ) ;
#171 = CARTESIAN_POINT ( 'NONE',  ( -6.000000000000000888, 0.000000000000000000, 5.000000000000000000 ) ) ;
#172 = FACE_OUTER_BOUND ( 'NONE', #167, .T. ) ;
#173 = CARTESIAN_POINT ( 'NONE',  ( 0.000000000000000000, 0.000000000000000000, 0.000000000000000000 ) ) ;
#174 =( GEOMETRIC_REPRESENTATION_CONTEXT ( 3 ) GLOBAL_UNCERTAINTY_ASSIGNED_CONTEXT ( ( #226 ) ) GLOBAL_UNIT_ASSIGNED_CONTEXT ( ( #102, #100, #81 ) ) REPRESENTATION_CONTEXT ( 'NONE', 'WORKASPACE' ) );
#175 = MECHANICAL_CONTEXT ( 'NONE', #26, 'mechanical' ) ;
#176 = PERSON_AND_ORGANIZATION ( #32, #93 ) ;
#177 = VERTEX_POINT ( 'NONE', #168 ) ;
#178 = CALENDAR_DATE ( 2023, 12, 2 ) ;
#179 = CC_DESIGN_PERSON_AND_ORGANIZATION_ASSIGNMENT ( #85, #27, ( #28 ) ) ;
#180 = CIRCLE ( 'NONE', #208, 6.000000000000000888 ) ;
#181 = DESIGN_CONTEXT ( 'detailed design', #198, 'design' ) ;
#182 = CC_DESIGN_APPROVAL ( #229, ( #156 ) ) ;
#183 = AXIS2_PLACEMENT_3D ( 'NONE', #189, #254, #35 ) ;
#184 = ORIENTED_EDGE ( 'NONE', *, *, #224, .T. ) ;
#185 = LOCAL_TIME ( 13, 17, 39.00000000000000000, #187 ) ;
#186 = APPROVAL ( #206, 'NEURÈENÝ' ) ;
#187 = COORDINATED_UNIVERSAL_TIME_OFFSET ( 1, 0, .AHEAD. ) ;
#188 = ORIENTED_EDGE ( 'NONE', *, *, #87, .T. ) ;
#189 = CARTESIAN_POINT ( 'NONE',  ( 0.000000000000000000, 0.000000000000000000, 1000.000000000000000 ) ) ;
#190 = DIRECTION ( 'NONE',  ( -1.000000000000000000, 0.000000000000000000, 0.000000000000000000 ) ) ;
#191 = EDGE_CURVE ( 'NONE', #108, #89, #128, .T. ) ;
#192 = DIRECTION ( 'NONE',  ( 1.000000000000000000, 0.000000000000000000, 0.000000000000000000 ) ) ;
#193 = DIRECTION ( 'NONE',  ( 0.000000000000000000, 0.000000000000000000, 1.000000000000000000 ) ) ;
#194 = AXIS2_PLACEMENT_3D ( 'NONE', #3, #148, #36 ) ;
#195 = CARTESIAN_POINT ( 'NONE',  ( 3.000000000000000444, 3.673940397442059868E-16, 5.000000000000000000 ) ) ;
#196 = CARTESIAN_POINT ( 'NONE',  ( 6.000000000000000888, 7.347880794884120722E-16, 0.000000000000000000 ) ) ;
#197 = ADVANCED_BREP_SHAPE_REPRESENTATION ( '5d88', ( #69, #160 ), #174 ) ;
#198 = APPLICATION_CONTEXT ( 'configuration controlled 3d designs of mechanical parts and assemblies' ) ;
#199 = AXIS2_PLACEMENT_3D ( 'NONE', #110, #58, #190 ) ;
#200 = APPLICATION_PROTOCOL_DEFINITION ( 'international standard', 'config_control_design', 1994, #198 ) ;
#201 = EDGE_CURVE ( 'NONE', #247, #86, #180, .T. ) ;
#202 = ORIENTED_EDGE ( 'NONE', *, *, #250, .T. ) ;
#203 = DATE_AND_TIME ( #158, #117 ) ;
#204 = CIRCLE ( 'NONE', #154, 3.000000000000000444 ) ;
#205 = ORIENTED_EDGE ( 'NONE', *, *, #101, .F. ) ;
#206 = APPROVAL_STATUS ( 'not_yet_approved' ) ;
#207 = APPROVAL_PERSON_ORGANIZATION ( #133, #161, #130 ) ;
#208 = AXIS2_PLACEMENT_3D ( 'NONE', #2, #15, #134 ) ;
#209 = ORIENTED_EDGE ( 'NONE', *, *, #101, .T. ) ;
#210 = CC_DESIGN_PERSON_AND_ORGANIZATION_ASSIGNMENT ( #68, #142, ( #240 ) ) ;
#211 = AXIS2_PLACEMENT_3D ( 'NONE', #236, #57, #213 ) ;
#212 = ORIENTED_EDGE ( 'NONE', *, *, #55, .F. ) ;
#213 = DIRECTION ( 'NONE',  ( 1.000000000000000000, 0.000000000000000000, 0.000000000000000000 ) ) ;
#214 = CARTESIAN_POINT ( 'NONE',  ( 6.000000000000000888, 7.347880794884120722E-16, 5.000000000000000000 ) ) ;
#215 = DIRECTION ( 'NONE',  ( -0.000000000000000000, -0.000000000000000000, -1.000000000000000000 ) ) ;
#216 = CARTESIAN_POINT ( 'NONE',  ( -3.000000000000000444, 0.000000000000000000, 1000.000000000000000 ) ) ;
#217 = DIRECTION ( 'NONE',  ( -0.000000000000000000, -0.000000000000000000, -1.000000000000000000 ) ) ;
#218 = DIRECTION ( 'NONE',  ( 1.000000000000000000, 0.000000000000000000, 0.000000000000000000 ) ) ;
#219 = DIRECTION ( 'NONE',  ( 0.000000000000000000, 0.000000000000000000, 1.000000000000000000 ) ) ;
#220 = CC_DESIGN_APPROVAL ( #161, ( #240 ) ) ;
#221 = PRODUCT_DEFINITION_SHAPE ( 'NONE', 'NONE',  #28 ) ;
#222 = LOCAL_TIME ( 13, 17, 39.00000000000000000, #9 ) ;
#223 = PERSON_AND_ORGANIZATION ( #32, #93 ) ;
#224 = EDGE_CURVE ( 'NONE', #122, #177, #1, .T. ) ;
#225 = PERSON_AND_ORGANIZATION ( #32, #93 ) ;
#226 = UNCERTAINTY_MEASURE_WITH_UNIT (LENGTH_MEASURE( 1.000000000000000082E-05 ), #102, 'distance_accuracy_value', 'NONE');
#227 = APPROVAL_ROLE ( '' ) ;
#228 = ORIENTED_EDGE ( 'NONE', *, *, #250, .F. ) ;
#229 = APPROVAL ( #83, 'NEURÈENÝ' ) ;
#230 = DATE_TIME_ROLE ( 'classification_date' ) ;
#231 = ORIENTED_EDGE ( 'NONE', *, *, #151, .F. ) ;
#232 = DATE_AND_TIME ( #56, #20 ) ;
#233 = ORIENTED_EDGE ( 'NONE', *, *, #224, .F. ) ;
#234 = PLANE ( 'NONE',  #43 ) ;
#235 = CARTESIAN_POINT ( 'NONE',  ( -3.000000000000000444, 0.000000000000000000, 5.000000000000000000 ) ) ;
#236 = CARTESIAN_POINT ( 'NONE',  ( 0.000000000000000000, 0.000000000000000000, 5.000000000000000000 ) ) ;
#237 = CARTESIAN_POINT ( 'NONE',  ( 6.000000000000000888, 7.347880794884120722E-16, 5.000000000000000000 ) ) ;
#238 = DIRECTION ( 'NONE',  ( -1.000000000000000000, 0.000000000000000000, 0.000000000000000000 ) ) ;
#239 = CARTESIAN_POINT ( 'NONE',  ( 0.000000000000000000, 0.000000000000000000, 1000.000000000000000 ) ) ;
#240 = SECURITY_CLASSIFICATION ( '', '', #104 ) ;
#241 = CARTESIAN_POINT ( 'NONE',  ( 0.000000000000000000, 0.000000000000000000, 0.000000000000000000 ) ) ;
#242 = EDGE_CURVE ( 'NONE', #108, #33, #131, .T. ) ;
#243 = APPROVAL_PERSON_ORGANIZATION ( #124, #186, #8 ) ;
#244 = ORIENTED_EDGE ( 'NONE', *, *, #201, .F. ) ;
#245 = COORDINATED_UNIVERSAL_TIME_OFFSET ( 1, 0, .AHEAD. ) ;
#246 = DATE_TIME_ROLE ( 'creation_date' ) ;
#247 = VERTEX_POINT ( 'NONE', #214 ) ;
#248 = CIRCLE ( 'NONE', #211, 3.000000000000000444 ) ;
#249 = LOCAL_TIME ( 13, 17, 39.00000000000000000, #105 ) ;
#250 = EDGE_CURVE ( 'NONE', #89, #108, #30, .T. ) ;
#251 = CC_DESIGN_PERSON_AND_ORGANIZATION_ASSIGNMENT ( #223, #44, ( #7 ) ) ;
#252 = ORIENTED_EDGE ( 'NONE', *, *, #242, .F. ) ;
#253 = ORIENTED_EDGE ( 'NONE', *, *, #191, .F. ) ;
#254 = DIRECTION ( 'NONE',  ( 0.000000000000000000, 0.000000000000000000, 1.000000000000000000 ) ) ;
#255 = CARTESIAN_POINT ( 'NONE',  ( 0.000000000000000000, 0.000000000000000000, 0.000000000000000000 ) ) ;
ENDSEC;
END-ISO-10303-21;
