ISO-10303-21;
HEADER;
FILE_DESCRIPTION (( 'STEP AP203' ),
    '1' );
FILE_NAME ('605a.STEP',
    '2023-02-12T11:05:33',
    ( '' ),
    ( '' ),
    'SwSTEP 2.0',
    'SolidWorks 2019',
    '' );
FILE_SCHEMA (( 'CONFIG_CONTROL_DESIGN' ));
ENDSEC;

DATA;
#1 = APPLICATION_CONTEXT ( 'configuration controlled 3d designs of mechanical parts and assemblies' ) ;
#2 = PERSON_AND_ORGANIZATION_ROLE ( 'design_supplier' ) ;
#3 = CC_DESIGN_PERSON_AND_ORGANIZATION_ASSIGNMENT ( #116, #2, ( #65 ) ) ;
#4 = AXIS2_PLACEMENT_3D ( 'NONE', #13, #171, #208 ) ;
#5 = FACE_OUTER_BOUND ( 'NONE', #9, .T. ) ;
#6 = CYLINDRICAL_SURFACE ( 'NONE', #155, 9.000000000000000000 ) ;
#7 = EDGE_CURVE ( 'NONE', #74, #47, #71, .T. ) ;
#8 = CARTESIAN_POINT ( 'NONE',  ( 9.000000000000000000, 1.102182119232617714E-15, 7.000000000000000000 ) ) ;
#9 = EDGE_LOOP ( 'NONE', ( #111, #31 ) ) ;
#10 = LOCAL_TIME ( 12, 5, 33.00000000000000000, #178 ) ;
#11 = CC_DESIGN_DATE_AND_TIME_ASSIGNMENT ( #63, #82, ( #115 ) ) ;
#12 = COORDINATED_UNIVERSAL_TIME_OFFSET ( 1, 0, .AHEAD. ) ;
#13 = CARTESIAN_POINT ( 'NONE',  ( 0.000000000000000000, 0.000000000000000000, 315.0000000000000000 ) ) ;
#14 = ORIENTED_EDGE ( 'NONE', *, *, #182, .F. ) ;
#15 = DIRECTION ( 'NONE',  ( 0.000000000000000000, 0.000000000000000000, 1.000000000000000000 ) ) ;
#16 = EDGE_CURVE ( 'NONE', #17, #92, #143, .T. ) ;
#17 = VERTEX_POINT ( 'NONE', #224 ) ;
#18 = ADVANCED_FACE ( 'NONE', ( #48, #123 ), #201, .T. ) ;
#19 = CC_DESIGN_APPROVAL ( #90, ( #61 ) ) ;
#20 = AXIS2_PLACEMENT_3D ( 'NONE', #156, #15, #113 ) ;
#21 = PERSON_AND_ORGANIZATION_ROLE ( 'classification_officer' ) ;
#22 = PERSON_AND_ORGANIZATION ( #252, #210 ) ;
#23 = CARTESIAN_POINT ( 'NONE',  ( 6.000000000000000888, 7.347880794884120722E-16, 7.000000000000000000 ) ) ;
#24 = CARTESIAN_POINT ( 'NONE',  ( -6.000000000000000888, 0.000000000000000000, 315.0000000000000000 ) ) ;
#25 = APPROVAL_ROLE ( '' ) ;
#26 = AXIS2_PLACEMENT_3D ( 'NONE', #187, #134, #213 ) ;
#27 = APPROVAL_DATE_TIME ( #69, #90 ) ;
#28 = PLANE ( 'NONE',  #51 ) ;
#29 = VECTOR ( 'NONE', #72, 1000.000000000000000 ) ;
#30 = LINE ( 'NONE', #8, #121 ) ;
#31 = ORIENTED_EDGE ( 'NONE', *, *, #135, .F. ) ;
#32 = DIRECTION ( 'NONE',  ( -1.000000000000000000, 0.000000000000000000, 0.000000000000000000 ) ) ;
#33 = EDGE_LOOP ( 'NONE', ( #147, #232, #56, #193 ) ) ;
#34 = CC_DESIGN_PERSON_AND_ORGANIZATION_ASSIGNMENT ( #247, #246, ( #61 ) ) ;
#35 = EDGE_LOOP ( 'NONE', ( #14, #212, #206, #85 ) ) ;
#36 = ORIENTED_EDGE ( 'NONE', *, *, #149, .T. ) ;
#37 = APPROVAL_PERSON_ORGANIZATION ( #159, #99, #141 ) ;
#38 = CYLINDRICAL_SURFACE ( 'NONE', #145, 6.000000000000000888 ) ;
#39 = PRODUCT ( '605a', '605a', '', ( #60 ) ) ;
#40 = CARTESIAN_POINT ( 'NONE',  ( -9.000000000000000000, 0.000000000000000000, 0.000000000000000000 ) ) ;
#41 = SECURITY_CLASSIFICATION_LEVEL ( 'unclassified' ) ;
#42 = DIRECTION ( 'NONE',  ( 1.000000000000000000, 0.000000000000000000, -0.000000000000000000 ) ) ;
#43 = DESIGN_CONTEXT ( 'detailed design', #136, 'design' ) ;
#44 = DIRECTION ( 'NONE',  ( 1.000000000000000000, 0.000000000000000000, 0.000000000000000000 ) ) ;
#45 = CARTESIAN_POINT ( 'NONE',  ( 0.000000000000000000, 0.000000000000000000, 0.000000000000000000 ) ) ;
#46 = ADVANCED_FACE ( 'NONE', ( #242 ), #75, .T. ) ;
#47 = VERTEX_POINT ( 'NONE', #125 ) ;
#48 = FACE_BOUND ( 'NONE', #162, .T. ) ;
#49 = EDGE_CURVE ( 'NONE', #47, #74, #253, .T. ) ;
#50 = DIRECTION ( 'NONE',  ( -1.000000000000000000, 0.000000000000000000, 0.000000000000000000 ) ) ;
#51 = AXIS2_PLACEMENT_3D ( 'NONE', #84, #88, #42 ) ;
#52 = VERTEX_POINT ( 'NONE', #154 ) ;
#53 = ORIENTED_EDGE ( 'NONE', *, *, #79, .F. ) ;
#54 = CARTESIAN_POINT ( 'NONE',  ( 0.000000000000000000, 0.000000000000000000, 7.000000000000000000 ) ) ;
#55 = DIRECTION ( 'NONE',  ( 0.000000000000000000, 0.000000000000000000, 1.000000000000000000 ) ) ;
#56 = ORIENTED_EDGE ( 'NONE', *, *, #79, .T. ) ;
#57 =( GEOMETRIC_REPRESENTATION_CONTEXT ( 3 ) GLOBAL_UNCERTAINTY_ASSIGNED_CONTEXT ( ( #76 ) ) GLOBAL_UNIT_ASSIGNED_CONTEXT ( ( #179, #198, #160 ) ) REPRESENTATION_CONTEXT ( 'NONE', 'WORKASPACE' ) );
#58 = ADVANCED_FACE ( 'NONE', ( #199 ), #6, .T. ) ;
#59 = PERSON_AND_ORGANIZATION_ROLE ( 'creator' ) ;
#60 = MECHANICAL_CONTEXT ( 'NONE', #1, 'mechanical' ) ;
#61 = PRODUCT_DEFINITION ( 'NEZNÁMÝ', '', #65, #43 ) ;
#62 = FACE_OUTER_BOUND ( 'NONE', #33, .T. ) ;
#63 = DATE_AND_TIME ( #236, #10 ) ;
#64 = APPROVAL_STATUS ( 'not_yet_approved' ) ;
#65 = PRODUCT_DEFINITION_FORMATION_WITH_SPECIFIED_SOURCE ( 'LIBOVOLNÝ', '', #39, .NOT_KNOWN. ) ;
#66 = PERSON_AND_ORGANIZATION ( #252, #210 ) ;
#67 = CARTESIAN_POINT ( 'NONE',  ( 0.000000000000000000, 0.000000000000000000, 7.000000000000000000 ) ) ;
#68 = EDGE_CURVE ( 'NONE', #95, #248, #185, .T. ) ;
#69 = DATE_AND_TIME ( #239, #173 ) ;
#70 = DIRECTION ( 'NONE',  ( 1.000000000000000000, 0.000000000000000000, -0.000000000000000000 ) ) ;
#71 = CIRCLE ( 'NONE', #26, 9.000000000000000000 ) ;
#72 = DIRECTION ( 'NONE',  ( -0.000000000000000000, -0.000000000000000000, -1.000000000000000000 ) ) ;
#73 = AXIS2_PLACEMENT_3D ( 'NONE', #126, #169, #167 ) ;
#74 = VERTEX_POINT ( 'NONE', #165 ) ;
#75 = PLANE ( 'NONE',  #216 ) ;
#76 = UNCERTAINTY_MEASURE_WITH_UNIT (LENGTH_MEASURE( 1.000000000000000082E-05 ), #179, 'distance_accuracy_value', 'NONE');
#77 = ORIENTED_EDGE ( 'NONE', *, *, #235, .F. ) ;
#78 = CARTESIAN_POINT ( 'NONE',  ( 6.000000000000000888, 7.347880794884120722E-16, 315.0000000000000000 ) ) ;
#79 = EDGE_CURVE ( 'NONE', #92, #95, #161, .T. ) ;
#80 = CALENDAR_DATE ( 2023, 12, 2 ) ;
#81 = AXIS2_PLACEMENT_3D ( 'NONE', #108, #207, #91 ) ;
#82 = DATE_TIME_ROLE ( 'classification_date' ) ;
#83 = CLOSED_SHELL ( 'NONE', ( #138, #58, #158, #18, #93, #214, #46 ) ) ;
#84 = CARTESIAN_POINT ( 'NONE',  ( 0.000000000000000000, 0.000000000000000000, 0.000000000000000000 ) ) ;
#85 = ORIENTED_EDGE ( 'NONE', *, *, #103, .T. ) ;
#86 = DIRECTION ( 'NONE',  ( 0.000000000000000000, 0.000000000000000000, 1.000000000000000000 ) ) ;
#87 = DIRECTION ( 'NONE',  ( 1.000000000000000000, 0.000000000000000000, 0.000000000000000000 ) ) ;
#88 = DIRECTION ( 'NONE',  ( 0.000000000000000000, 0.000000000000000000, 1.000000000000000000 ) ) ;
#89 = APPROVAL_PERSON_ORGANIZATION ( #22, #97, #195 ) ;
#90 = APPROVAL ( #119, 'NEURÈENÝ' ) ;
#91 = DIRECTION ( 'NONE',  ( 1.000000000000000000, 0.000000000000000000, -0.000000000000000000 ) ) ;
#92 = VERTEX_POINT ( 'NONE', #24 ) ;
#93 = ADVANCED_FACE ( 'NONE', ( #5 ), #28, .F. ) ;
#94 = CIRCLE ( 'NONE', #233, 9.000000000000000000 ) ;
#95 = VERTEX_POINT ( 'NONE', #238 ) ;
#96 = ADVANCED_BREP_SHAPE_REPRESENTATION ( '605a', ( #225, #20 ), #57 ) ;
#97 = APPROVAL ( #64, 'NEURÈENÝ' ) ;
#98 = LOCAL_TIME ( 12, 5, 33.00000000000000000, #101 ) ;
#99 = APPROVAL ( #223, 'NEURÈENÝ' ) ;
#100 = DIRECTION ( 'NONE',  ( -0.000000000000000000, -0.000000000000000000, -1.000000000000000000 ) ) ;
#101 = COORDINATED_UNIVERSAL_TIME_OFFSET ( 1, 0, .AHEAD. ) ;
#102 = DIRECTION ( 'NONE',  ( -0.000000000000000000, -0.000000000000000000, -1.000000000000000000 ) ) ;
#103 = EDGE_CURVE ( 'NONE', #221, #52, #94, .T. ) ;
#104 = DIRECTION ( 'NONE',  ( -1.000000000000000000, 0.000000000000000000, 0.000000000000000000 ) ) ;
#105 = AXIS2_PLACEMENT_3D ( 'NONE', #183, #240, #164 ) ;
#106 = CC_DESIGN_SECURITY_CLASSIFICATION ( #115, ( #65 ) ) ;
#107 = AXIS2_PLACEMENT_3D ( 'NONE', #67, #118, #87 ) ;
#108 = CARTESIAN_POINT ( 'NONE',  ( 0.000000000000000000, 0.000000000000000000, 7.000000000000000000 ) ) ;
#109 = AXIS2_PLACEMENT_3D ( 'NONE', #220, #222, #50 ) ;
#110 = CIRCLE ( 'NONE', #4, 6.000000000000000888 ) ;
#111 = ORIENTED_EDGE ( 'NONE', *, *, #103, .F. ) ;
#112 = SHAPE_DEFINITION_REPRESENTATION ( #255, #96 ) ;
#113 = DIRECTION ( 'NONE',  ( 1.000000000000000000, 0.000000000000000000, 0.000000000000000000 ) ) ;
#114 = LINE ( 'NONE', #254, #131 ) ;
#115 = SECURITY_CLASSIFICATION ( '', '', #41 ) ;
#116 = PERSON_AND_ORGANIZATION ( #252, #210 ) ;
#117 = CC_DESIGN_PERSON_AND_ORGANIZATION_ASSIGNMENT ( #139, #21, ( #115 ) ) ;
#118 = DIRECTION ( 'NONE',  ( 0.000000000000000000, 0.000000000000000000, 1.000000000000000000 ) ) ;
#119 = APPROVAL_STATUS ( 'not_yet_approved' ) ;
#120 = CIRCLE ( 'NONE', #73, 9.000000000000000000 ) ;
#121 = VECTOR ( 'NONE', #102, 1000.000000000000000 ) ;
#122 = EDGE_CURVE ( 'NONE', #92, #17, #110, .T. ) ;
#123 = FACE_OUTER_BOUND ( 'NONE', #172, .T. ) ;
#124 = DIRECTION ( 'NONE',  ( -0.000000000000000000, -0.000000000000000000, -1.000000000000000000 ) ) ;
#125 = CARTESIAN_POINT ( 'NONE',  ( 9.000000000000000000, 1.102182119232617714E-15, 7.000000000000000000 ) ) ;
#126 = CARTESIAN_POINT ( 'NONE',  ( 0.000000000000000000, 0.000000000000000000, 0.000000000000000000 ) ) ;
#127 = ORIENTED_EDGE ( 'NONE', *, *, #49, .F. ) ;
#128 = EDGE_LOOP ( 'NONE', ( #157, #153 ) ) ;
#129 = DIRECTION ( 'NONE',  ( -0.000000000000000000, -0.000000000000000000, -1.000000000000000000 ) ) ;
#130 = APPROVAL_PERSON_ORGANIZATION ( #196, #90, #25 ) ;
#131 = VECTOR ( 'NONE', #217, 1000.000000000000000 ) ;
#132 = DATE_AND_TIME ( #80, #194 ) ;
#133 = ORIENTED_EDGE ( 'NONE', *, *, #135, .T. ) ;
#134 = DIRECTION ( 'NONE',  ( 0.000000000000000000, 0.000000000000000000, 1.000000000000000000 ) ) ;
#135 = EDGE_CURVE ( 'NONE', #52, #221, #120, .T. ) ;
#136 = APPLICATION_CONTEXT ( 'configuration controlled 3d designs of mechanical parts and assemblies' ) ;
#137 = CARTESIAN_POINT ( 'NONE',  ( 0.000000000000000000, 0.000000000000000000, 315.0000000000000000 ) ) ;
#138 = ADVANCED_FACE ( 'NONE', ( #150 ), #245, .T. ) ;
#139 = PERSON_AND_ORGANIZATION ( #252, #210 ) ;
#140 = AXIS2_PLACEMENT_3D ( 'NONE', #177, #215, #44 ) ;
#141 = APPROVAL_ROLE ( '' ) ;
#142 = CC_DESIGN_PERSON_AND_ORGANIZATION_ASSIGNMENT ( #166, #59, ( #65 ) ) ;
#143 = CIRCLE ( 'NONE', #105, 6.000000000000000888 ) ;
#144 = APPLICATION_PROTOCOL_DEFINITION ( 'international standard', 'config_control_design', 1994, #136 ) ;
#145 = AXIS2_PLACEMENT_3D ( 'NONE', #137, #100, #175 ) ;
#146 = APPROVAL_DATE_TIME ( #209, #97 ) ;
#147 = ORIENTED_EDGE ( 'NONE', *, *, #149, .F. ) ;
#148 = CARTESIAN_POINT ( 'NONE',  ( 0.000000000000000000, 0.000000000000000000, 315.0000000000000000 ) ) ;
#149 = EDGE_CURVE ( 'NONE', #17, #248, #205, .T. ) ;
#150 = FACE_OUTER_BOUND ( 'NONE', #186, .T. ) ;
#151 = DIRECTION ( 'NONE',  ( 1.000000000000000000, 0.000000000000000000, 0.000000000000000000 ) ) ;
#152 = CALENDAR_DATE ( 2023, 12, 2 ) ;
#153 = ORIENTED_EDGE ( 'NONE', *, *, #16, .T. ) ;
#154 = CARTESIAN_POINT ( 'NONE',  ( 9.000000000000000000, 1.102182119232617714E-15, 0.000000000000000000 ) ) ;
#155 = AXIS2_PLACEMENT_3D ( 'NONE', #184, #218, #104 ) ;
#156 = CARTESIAN_POINT ( 'NONE',  ( 0.000000000000000000, 0.000000000000000000, 0.000000000000000000 ) ) ;
#157 = ORIENTED_EDGE ( 'NONE', *, *, #122, .T. ) ;
#158 = ADVANCED_FACE ( 'NONE', ( #227 ), #202, .T. ) ;
#159 = PERSON_AND_ORGANIZATION ( #252, #210 ) ;
#160 =( NAMED_UNIT ( * ) SI_UNIT ( $, .STERADIAN. ) SOLID_ANGLE_UNIT ( ) );
#161 = LINE ( 'NONE', #197, #29 ) ;
#162 = EDGE_LOOP ( 'NONE', ( #163, #77 ) ) ;
#163 = ORIENTED_EDGE ( 'NONE', *, *, #68, .F. ) ;
#164 = DIRECTION ( 'NONE',  ( 1.000000000000000000, 0.000000000000000000, 0.000000000000000000 ) ) ;
#165 = CARTESIAN_POINT ( 'NONE',  ( -9.000000000000000000, 0.000000000000000000, 7.000000000000000000 ) ) ;
#166 = PERSON_AND_ORGANIZATION ( #252, #210 ) ;
#167 = DIRECTION ( 'NONE',  ( 1.000000000000000000, 0.000000000000000000, 0.000000000000000000 ) ) ;
#168 = ORIENTED_EDGE ( 'NONE', *, *, #49, .T. ) ;
#169 = DIRECTION ( 'NONE',  ( 0.000000000000000000, 0.000000000000000000, 1.000000000000000000 ) ) ;
#170 = DATE_AND_TIME ( #243, #192 ) ;
#171 = DIRECTION ( 'NONE',  ( 0.000000000000000000, 0.000000000000000000, 1.000000000000000000 ) ) ;
#172 = EDGE_LOOP ( 'NONE', ( #250, #168 ) ) ;
#173 = LOCAL_TIME ( 12, 5, 33.00000000000000000, #181 ) ;
#174 = CC_DESIGN_APPROVAL ( #99, ( #115 ) ) ;
#175 = DIRECTION ( 'NONE',  ( -1.000000000000000000, 0.000000000000000000, 0.000000000000000000 ) ) ;
#176 = DATE_TIME_ROLE ( 'creation_date' ) ;
#177 = CARTESIAN_POINT ( 'NONE',  ( 0.000000000000000000, 0.000000000000000000, 7.000000000000000000 ) ) ;
#178 = COORDINATED_UNIVERSAL_TIME_OFFSET ( 1, 0, .AHEAD. ) ;
#179 =( LENGTH_UNIT ( ) NAMED_UNIT ( * ) SI_UNIT ( .MILLI., .METRE. ) );
#180 = APPROVAL_DATE_TIME ( #170, #99 ) ;
#181 = COORDINATED_UNIVERSAL_TIME_OFFSET ( 1, 0, .AHEAD. ) ;
#182 = EDGE_CURVE ( 'NONE', #47, #52, #30, .T. ) ;
#183 = CARTESIAN_POINT ( 'NONE',  ( 0.000000000000000000, 0.000000000000000000, 315.0000000000000000 ) ) ;
#184 = CARTESIAN_POINT ( 'NONE',  ( 0.000000000000000000, 0.000000000000000000, 7.000000000000000000 ) ) ;
#185 = CIRCLE ( 'NONE', #107, 6.000000000000000888 ) ;
#186 = EDGE_LOOP ( 'NONE', ( #244, #36, #200, #53 ) ) ;
#187 = CARTESIAN_POINT ( 'NONE',  ( 0.000000000000000000, 0.000000000000000000, 7.000000000000000000 ) ) ;
#188 = CC_DESIGN_DATE_AND_TIME_ASSIGNMENT ( #132, #176, ( #61 ) ) ;
#189 = CIRCLE ( 'NONE', #140, 6.000000000000000888 ) ;
#190 = APPLICATION_PROTOCOL_DEFINITION ( 'international standard', 'config_control_design', 1994, #1 ) ;
#191 = CARTESIAN_POINT ( 'NONE',  ( 0.000000000000000000, 0.000000000000000000, 7.000000000000000000 ) ) ;
#192 = LOCAL_TIME ( 12, 5, 33.00000000000000000, #229 ) ;
#193 = ORIENTED_EDGE ( 'NONE', *, *, #68, .T. ) ;
#194 = LOCAL_TIME ( 12, 5, 33.00000000000000000, #12 ) ;
#195 = APPROVAL_ROLE ( '' ) ;
#196 = PERSON_AND_ORGANIZATION ( #252, #210 ) ;
#197 = CARTESIAN_POINT ( 'NONE',  ( -6.000000000000000888, 0.000000000000000000, 315.0000000000000000 ) ) ;
#198 =( NAMED_UNIT ( * ) PLANE_ANGLE_UNIT ( ) SI_UNIT ( $, .RADIAN. ) );
#199 = FACE_OUTER_BOUND ( 'NONE', #204, .T. ) ;
#200 = ORIENTED_EDGE ( 'NONE', *, *, #235, .T. ) ;
#201 = PLANE ( 'NONE',  #81 ) ;
#202 = CYLINDRICAL_SURFACE ( 'NONE', #234, 9.000000000000000000 ) ;
#203 = CC_DESIGN_PERSON_AND_ORGANIZATION_ASSIGNMENT ( #66, #237, ( #39 ) ) ;
#204 = EDGE_LOOP ( 'NONE', ( #127, #231, #133, #251 ) ) ;
#205 = LINE ( 'NONE', #78, #241 ) ;
#206 = ORIENTED_EDGE ( 'NONE', *, *, #228, .T. ) ;
#207 = DIRECTION ( 'NONE',  ( 0.000000000000000000, 0.000000000000000000, 1.000000000000000000 ) ) ;
#208 = DIRECTION ( 'NONE',  ( 1.000000000000000000, 0.000000000000000000, 0.000000000000000000 ) ) ;
#209 = DATE_AND_TIME ( #152, #98 ) ;
#210 = ORGANIZATION ( 'NEURÈENÝ', 'NEURÈENÝ', '' ) ;
#211 = PRODUCT_RELATED_PRODUCT_CATEGORY ( 'detail', '', ( #39 ) ) ;
#212 = ORIENTED_EDGE ( 'NONE', *, *, #7, .F. ) ;
#213 = DIRECTION ( 'NONE',  ( 1.000000000000000000, 0.000000000000000000, 0.000000000000000000 ) ) ;
#214 = ADVANCED_FACE ( 'NONE', ( #62 ), #38, .T. ) ;
#215 = DIRECTION ( 'NONE',  ( 0.000000000000000000, 0.000000000000000000, 1.000000000000000000 ) ) ;
#216 = AXIS2_PLACEMENT_3D ( 'NONE', #148, #86, #70 ) ;
#217 = DIRECTION ( 'NONE',  ( -0.000000000000000000, -0.000000000000000000, -1.000000000000000000 ) ) ;
#218 = DIRECTION ( 'NONE',  ( -0.000000000000000000, -0.000000000000000000, -1.000000000000000000 ) ) ;
#219 = AXIS2_PLACEMENT_3D ( 'NONE', #191, #226, #249 ) ;
#220 = CARTESIAN_POINT ( 'NONE',  ( 0.000000000000000000, 0.000000000000000000, 315.0000000000000000 ) ) ;
#221 = VERTEX_POINT ( 'NONE', #40 ) ;
#222 = DIRECTION ( 'NONE',  ( -0.000000000000000000, -0.000000000000000000, -1.000000000000000000 ) ) ;
#223 = APPROVAL_STATUS ( 'not_yet_approved' ) ;
#224 = CARTESIAN_POINT ( 'NONE',  ( 6.000000000000000888, 7.347880794884120722E-16, 315.0000000000000000 ) ) ;
#225 = MANIFOLD_SOLID_BREP ( 'Pøidat vysunutím3', #83 ) ;
#226 = DIRECTION ( 'NONE',  ( 0.000000000000000000, 0.000000000000000000, 1.000000000000000000 ) ) ;
#227 = FACE_OUTER_BOUND ( 'NONE', #35, .T. ) ;
#228 = EDGE_CURVE ( 'NONE', #74, #221, #114, .T. ) ;
#229 = COORDINATED_UNIVERSAL_TIME_OFFSET ( 1, 0, .AHEAD. ) ;
#230 = CC_DESIGN_APPROVAL ( #97, ( #65 ) ) ;
#231 = ORIENTED_EDGE ( 'NONE', *, *, #182, .T. ) ;
#232 = ORIENTED_EDGE ( 'NONE', *, *, #122, .F. ) ;
#233 = AXIS2_PLACEMENT_3D ( 'NONE', #45, #55, #151 ) ;
#234 = AXIS2_PLACEMENT_3D ( 'NONE', #54, #129, #32 ) ;
#235 = EDGE_CURVE ( 'NONE', #248, #95, #189, .T. ) ;
#236 = CALENDAR_DATE ( 2023, 12, 2 ) ;
#237 = PERSON_AND_ORGANIZATION_ROLE ( 'design_owner' ) ;
#238 = CARTESIAN_POINT ( 'NONE',  ( -6.000000000000000888, 0.000000000000000000, 7.000000000000000000 ) ) ;
#239 = CALENDAR_DATE ( 2023, 12, 2 ) ;
#240 = DIRECTION ( 'NONE',  ( 0.000000000000000000, 0.000000000000000000, 1.000000000000000000 ) ) ;
#241 = VECTOR ( 'NONE', #124, 1000.000000000000000 ) ;
#242 = FACE_OUTER_BOUND ( 'NONE', #128, .T. ) ;
#243 = CALENDAR_DATE ( 2023, 12, 2 ) ;
#244 = ORIENTED_EDGE ( 'NONE', *, *, #16, .F. ) ;
#245 = CYLINDRICAL_SURFACE ( 'NONE', #109, 6.000000000000000888 ) ;
#246 = PERSON_AND_ORGANIZATION_ROLE ( 'creator' ) ;
#247 = PERSON_AND_ORGANIZATION ( #252, #210 ) ;
#248 = VERTEX_POINT ( 'NONE', #23 ) ;
#249 = DIRECTION ( 'NONE',  ( 1.000000000000000000, 0.000000000000000000, 0.000000000000000000 ) ) ;
#250 = ORIENTED_EDGE ( 'NONE', *, *, #7, .T. ) ;
#251 = ORIENTED_EDGE ( 'NONE', *, *, #228, .F. ) ;
#252 = PERSON ( 'NEURÈENÝ', 'NEURÈENÝ', 'NEURÈENÝ', ('NEURÈENÝ'), ('NEURÈENÝ'), ('NEURÈENÝ') ) ;
#253 = CIRCLE ( 'NONE', #219, 9.000000000000000000 ) ;
#254 = CARTESIAN_POINT ( 'NONE',  ( -9.000000000000000000, 0.000000000000000000, 7.000000000000000000 ) ) ;
#255 = PRODUCT_DEFINITION_SHAPE ( 'NONE', 'NONE',  #61 ) ;
ENDSEC;
END-ISO-10303-21;
