ISO-10303-21;
HEADER;
FILE_DESCRIPTION (( 'STEP AP203' ),
    '1' );
FILE_NAME ('edac.STEP',
    '2023-02-12T10:34:16',
    ( '' ),
    ( '' ),
    'SwSTEP 2.0',
    'SolidWorks 2019',
    '' );
FILE_SCHEMA (( 'CONFIG_CONTROL_DESIGN' ));
ENDSEC;

DATA;
#1 =( NAMED_UNIT ( * ) PLANE_ANGLE_UNIT ( ) SI_UNIT ( $, .RADIAN. ) );
#2 = EDGE_CURVE ( 'NONE', #227, #7, #228, .T. ) ;
#3 = VECTOR ( 'NONE', #204, 1000.000000000000000 ) ;
#4 = ORIENTED_EDGE ( 'NONE', *, *, #213, .T. ) ;
#5 = FACE_BOUND ( 'NONE', #221, .T. ) ;
#6 = DATE_TIME_ROLE ( 'classification_date' ) ;
#7 = VERTEX_POINT ( 'NONE', #92 ) ;
#8 = CARTESIAN_POINT ( 'NONE',  ( 0.000000000000000000, 0.000000000000000000, 7.000000000000000000 ) ) ;
#9 = ORIENTED_EDGE ( 'NONE', *, *, #44, .T. ) ;
#10 = FACE_OUTER_BOUND ( 'NONE', #172, .T. ) ;
#11 = SECURITY_CLASSIFICATION ( '', '', #194 ) ;
#12 = DESIGN_CONTEXT ( 'detailed design', #182, 'design' ) ;
#13 = AXIS2_PLACEMENT_3D ( 'NONE', #236, #214, #40 ) ;
#14 = EDGE_CURVE ( 'NONE', #151, #85, #154, .T. ) ;
#15 = CALENDAR_DATE ( 2023, 12, 2 ) ;
#16 = COORDINATED_UNIVERSAL_TIME_OFFSET ( 1, 0, .AHEAD. ) ;
#17 = CC_DESIGN_PERSON_AND_ORGANIZATION_ASSIGNMENT ( #207, #112, ( #42 ) ) ;
#18 = AXIS2_PLACEMENT_3D ( 'NONE', #255, #84, #61 ) ;
#19 = APPROVAL_DATE_TIME ( #242, #75 ) ;
#20 = PRODUCT_RELATED_PRODUCT_CATEGORY ( 'detail', '', ( #103 ) ) ;
#21 = EDGE_LOOP ( 'NONE', ( #135, #130 ) ) ;
#22 = CARTESIAN_POINT ( 'NONE',  ( 0.000000000000000000, 0.000000000000000000, 0.000000000000000000 ) ) ;
#23 = EDGE_CURVE ( 'NONE', #151, #45, #184, .T. ) ;
#24 = CC_DESIGN_APPROVAL ( #75, ( #11 ) ) ;
#25 = ORIENTED_EDGE ( 'NONE', *, *, #158, .F. ) ;
#26 = ORIENTED_EDGE ( 'NONE', *, *, #150, .T. ) ;
#27 = FACE_OUTER_BOUND ( 'NONE', #176, .T. ) ;
#28 = LINE ( 'NONE', #32, #81 ) ;
#29 = DIRECTION ( 'NONE',  ( -1.000000000000000000, 0.000000000000000000, 0.000000000000000000 ) ) ;
#30 = ORIENTED_EDGE ( 'NONE', *, *, #213, .F. ) ;
#31 = LOCAL_TIME ( 11, 34, 16.00000000000000000, #168 ) ;
#32 = CARTESIAN_POINT ( 'NONE',  ( 9.000000000000000000, 1.102182119232617714E-15, 630.0000000000000000 ) ) ;
#33 = DIRECTION ( 'NONE',  ( -1.000000000000000000, 0.000000000000000000, 0.000000000000000000 ) ) ;
#34 = MECHANICAL_CONTEXT ( 'NONE', #156, 'mechanical' ) ;
#35 = PERSON_AND_ORGANIZATION_ROLE ( 'design_supplier' ) ;
#36 = CC_DESIGN_SECURITY_CLASSIFICATION ( #11, ( #42 ) ) ;
#37 =( NAMED_UNIT ( * ) SI_UNIT ( $, .STERADIAN. ) SOLID_ANGLE_UNIT ( ) );
#38 = EDGE_CURVE ( 'NONE', #119, #245, #69, .T. ) ;
#39 = COORDINATED_UNIVERSAL_TIME_OFFSET ( 1, 0, .AHEAD. ) ;
#40 = DIRECTION ( 'NONE',  ( -1.000000000000000000, 0.000000000000000000, 0.000000000000000000 ) ) ;
#41 = ORIENTED_EDGE ( 'NONE', *, *, #249, .F. ) ;
#42 = PRODUCT_DEFINITION_FORMATION_WITH_SPECIFIED_SOURCE ( 'LIBOVOLNÝ', '', #103, .NOT_KNOWN. ) ;
#43 = COORDINATED_UNIVERSAL_TIME_OFFSET ( 1, 0, .AHEAD. ) ;
#44 = EDGE_CURVE ( 'NONE', #7, #227, #123, .T. ) ;
#45 = VERTEX_POINT ( 'NONE', #157 ) ;
#46 = LOCAL_TIME ( 11, 34, 16.00000000000000000, #16 ) ;
#47 = CARTESIAN_POINT ( 'NONE',  ( 0.000000000000000000, 0.000000000000000000, 7.000000000000000000 ) ) ;
#48 = LINE ( 'NONE', #125, #3 ) ;
#49 = ORIENTED_EDGE ( 'NONE', *, *, #38, .T. ) ;
#50 = CARTESIAN_POINT ( 'NONE',  ( 0.000000000000000000, 0.000000000000000000, 0.000000000000000000 ) ) ;
#51 = AXIS2_PLACEMENT_3D ( 'NONE', #47, #120, #93 ) ;
#52 = VECTOR ( 'NONE', #132, 1000.000000000000000 ) ;
#53 = AXIS2_PLACEMENT_3D ( 'NONE', #22, #152, #100 ) ;
#54 = DATE_TIME_ROLE ( 'creation_date' ) ;
#55 = APPROVAL_ROLE ( '' ) ;
#56 = CC_DESIGN_APPROVAL ( #164, ( #148 ) ) ;
#57 = ORIENTED_EDGE ( 'NONE', *, *, #44, .F. ) ;
#58 = CARTESIAN_POINT ( 'NONE',  ( 12.00000000000000178, 1.469576158976824144E-15, 7.000000000000000000 ) ) ;
#59 = PERSON_AND_ORGANIZATION ( #116, #186 ) ;
#60 = ADVANCED_FACE ( 'NONE', ( #27 ), #104, .T. ) ;
#61 = DIRECTION ( 'NONE',  ( 1.000000000000000000, 0.000000000000000000, -0.000000000000000000 ) ) ;
#62 = DIRECTION ( 'NONE',  ( -0.000000000000000000, -0.000000000000000000, -1.000000000000000000 ) ) ;
#63 = APPROVAL_PERSON_ORGANIZATION ( #193, #164, #128 ) ;
#64 = DIRECTION ( 'NONE',  ( 1.000000000000000000, 0.000000000000000000, 0.000000000000000000 ) ) ;
#65 = CC_DESIGN_DATE_AND_TIME_ASSIGNMENT ( #94, #54, ( #148 ) ) ;
#66 = ORIENTED_EDGE ( 'NONE', *, *, #38, .F. ) ;
#67 = CARTESIAN_POINT ( 'NONE',  ( -9.000000000000000000, 0.000000000000000000, 630.0000000000000000 ) ) ;
#68 = DIRECTION ( 'NONE',  ( 1.000000000000000000, 0.000000000000000000, 0.000000000000000000 ) ) ;
#69 = CIRCLE ( 'NONE', #189, 9.000000000000000000 ) ;
#70 = ORIENTED_EDGE ( 'NONE', *, *, #2, .F. ) ;
#71 = PLANE ( 'NONE',  #80 ) ;
#72 = CIRCLE ( 'NONE', #174, 12.00000000000000178 ) ;
#73 = DIRECTION ( 'NONE',  ( 1.000000000000000000, 0.000000000000000000, 0.000000000000000000 ) ) ;
#74 = PERSON_AND_ORGANIZATION ( #116, #186 ) ;
#75 = APPROVAL ( #239, 'NEURÈENÝ' ) ;
#76 = LOCAL_TIME ( 11, 34, 16.00000000000000000, #142 ) ;
#77 = PRODUCT_DEFINITION_SHAPE ( 'NONE', 'NONE',  #148 ) ;
#78 = AXIS2_PLACEMENT_3D ( 'NONE', #98, #62, #133 ) ;
#79 = FACE_OUTER_BOUND ( 'NONE', #140, .T. ) ;
#80 = AXIS2_PLACEMENT_3D ( 'NONE', #126, #188, #206 ) ;
#81 = VECTOR ( 'NONE', #229, 1000.000000000000000 ) ;
#82 = ADVANCED_FACE ( 'NONE', ( #117 ), #200, .T. ) ;
#83 = ORIENTED_EDGE ( 'NONE', *, *, #113, .T. ) ;
#84 = DIRECTION ( 'NONE',  ( 0.000000000000000000, 0.000000000000000000, 1.000000000000000000 ) ) ;
#85 = VERTEX_POINT ( 'NONE', #185 ) ;
#86 = DIRECTION ( 'NONE',  ( 0.000000000000000000, 0.000000000000000000, 1.000000000000000000 ) ) ;
#87 = CALENDAR_DATE ( 2023, 12, 2 ) ;
#88 = ADVANCED_FACE ( 'NONE', ( #10 ), #253, .T. ) ;
#89 = DIRECTION ( 'NONE',  ( 0.000000000000000000, 0.000000000000000000, 1.000000000000000000 ) ) ;
#90 = DIRECTION ( 'NONE',  ( 0.000000000000000000, 0.000000000000000000, 1.000000000000000000 ) ) ;
#91 = DIRECTION ( 'NONE',  ( 1.000000000000000000, 0.000000000000000000, 0.000000000000000000 ) ) ;
#92 = CARTESIAN_POINT ( 'NONE',  ( 9.000000000000000000, 1.102182119232617714E-15, 7.000000000000000000 ) ) ;
#93 = DIRECTION ( 'NONE',  ( 1.000000000000000000, 0.000000000000000000, 0.000000000000000000 ) ) ;
#94 = DATE_AND_TIME ( #15, #76 ) ;
#95 = PERSON_AND_ORGANIZATION_ROLE ( 'design_owner' ) ;
#96 = LOCAL_TIME ( 11, 34, 16.00000000000000000, #43 ) ;
#97 =( GEOMETRIC_REPRESENTATION_CONTEXT ( 3 ) GLOBAL_UNCERTAINTY_ASSIGNED_CONTEXT ( ( #160 ) ) GLOBAL_UNIT_ASSIGNED_CONTEXT ( ( #235, #1, #37 ) ) REPRESENTATION_CONTEXT ( 'NONE', 'WORKASPACE' ) );
#98 = CARTESIAN_POINT ( 'NONE',  ( 0.000000000000000000, 0.000000000000000000, 7.000000000000000000 ) ) ;
#99 = ADVANCED_FACE ( 'NONE', ( #107 ), #71, .F. ) ;
#100 = DIRECTION ( 'NONE',  ( 1.000000000000000000, 0.000000000000000000, 0.000000000000000000 ) ) ;
#101 = ORIENTED_EDGE ( 'NONE', *, *, #23, .T. ) ;
#102 = DIRECTION ( 'NONE',  ( 1.000000000000000000, 0.000000000000000000, 0.000000000000000000 ) ) ;
#103 = PRODUCT ( 'edac', 'edac', '', ( #34 ) ) ;
#104 = PLANE ( 'NONE',  #223 ) ;
#105 = EDGE_LOOP ( 'NONE', ( #30, #66, #139, #196 ) ) ;
#106 = CARTESIAN_POINT ( 'NONE',  ( -12.00000000000000178, 0.000000000000000000, 0.000000000000000000 ) ) ;
#107 = FACE_OUTER_BOUND ( 'NONE', #21, .T. ) ;
#108 = CC_DESIGN_PERSON_AND_ORGANIZATION_ASSIGNMENT ( #127, #110, ( #148 ) ) ;
#109 = APPROVAL_PERSON_ORGANIZATION ( #59, #75, #197 ) ;
#110 = PERSON_AND_ORGANIZATION_ROLE ( 'creator' ) ;
#111 = CC_DESIGN_PERSON_AND_ORGANIZATION_ASSIGNMENT ( #232, #95, ( #103 ) ) ;
#112 = PERSON_AND_ORGANIZATION_ROLE ( 'creator' ) ;
#113 = EDGE_CURVE ( 'NONE', #238, #85, #161, .T. ) ;
#114 = ORIENTED_EDGE ( 'NONE', *, *, #14, .F. ) ;
#115 = FACE_OUTER_BOUND ( 'NONE', #241, .T. ) ;
#116 = PERSON ( 'NEURÈENÝ', 'NEURÈENÝ', 'NEURÈENÝ', ('NEURÈENÝ'), ('NEURÈENÝ'), ('NEURÈENÝ') ) ;
#117 = FACE_OUTER_BOUND ( 'NONE', #105, .T. ) ;
#118 = FACE_OUTER_BOUND ( 'NONE', #212, .T. ) ;
#119 = VERTEX_POINT ( 'NONE', #67 ) ;
#120 = DIRECTION ( 'NONE',  ( 0.000000000000000000, 0.000000000000000000, 1.000000000000000000 ) ) ;
#121 = DIRECTION ( 'NONE',  ( -0.000000000000000000, -0.000000000000000000, -1.000000000000000000 ) ) ;
#122 = ORIENTED_EDGE ( 'NONE', *, *, #208, .T. ) ;
#123 = CIRCLE ( 'NONE', #51, 9.000000000000000000 ) ;
#124 = ADVANCED_FACE ( 'NONE', ( #5, #115 ), #178, .T. ) ;
#125 = CARTESIAN_POINT ( 'NONE',  ( -12.00000000000000178, 0.000000000000000000, 7.000000000000000000 ) ) ;
#126 = CARTESIAN_POINT ( 'NONE',  ( 0.000000000000000000, 0.000000000000000000, 0.000000000000000000 ) ) ;
#127 = PERSON_AND_ORGANIZATION ( #116, #186 ) ;
#128 = APPROVAL_ROLE ( '' ) ;
#129 = DATE_AND_TIME ( #144, #46 ) ;
#130 = ORIENTED_EDGE ( 'NONE', *, *, #208, .F. ) ;
#131 = CARTESIAN_POINT ( 'NONE',  ( -9.000000000000000000, 0.000000000000000000, 630.0000000000000000 ) ) ;
#132 = DIRECTION ( 'NONE',  ( -0.000000000000000000, -0.000000000000000000, -1.000000000000000000 ) ) ;
#133 = DIRECTION ( 'NONE',  ( -1.000000000000000000, 0.000000000000000000, 0.000000000000000000 ) ) ;
#134 = ORIENTED_EDGE ( 'NONE', *, *, #150, .F. ) ;
#135 = ORIENTED_EDGE ( 'NONE', *, *, #113, .F. ) ;
#136 = CLOSED_SHELL ( 'NONE', ( #88, #171, #199, #124, #99, #82, #60 ) ) ;
#137 = CARTESIAN_POINT ( 'NONE',  ( 0.000000000000000000, 0.000000000000000000, 630.0000000000000000 ) ) ;
#138 = LOCAL_TIME ( 11, 34, 16.00000000000000000, #39 ) ;
#139 = ORIENTED_EDGE ( 'NONE', *, *, #158, .T. ) ;
#140 = EDGE_LOOP ( 'NONE', ( #248, #215, #122, #41 ) ) ;
#141 = CC_DESIGN_PERSON_AND_ORGANIZATION_ASSIGNMENT ( #237, #35, ( #42 ) ) ;
#142 = COORDINATED_UNIVERSAL_TIME_OFFSET ( 1, 0, .AHEAD. ) ;
#143 = CARTESIAN_POINT ( 'NONE',  ( 0.000000000000000000, 0.000000000000000000, 0.000000000000000000 ) ) ;
#144 = CALENDAR_DATE ( 2023, 12, 2 ) ;
#145 = CIRCLE ( 'NONE', #230, 12.00000000000000178 ) ;
#146 = CYLINDRICAL_SURFACE ( 'NONE', #13, 12.00000000000000178 ) ;
#147 = APPLICATION_PROTOCOL_DEFINITION ( 'international standard', 'config_control_design', 1994, #156 ) ;
#148 = PRODUCT_DEFINITION ( 'NEZNÁMÝ', '', #42, #12 ) ;
#149 = APPROVAL_PERSON_ORGANIZATION ( #74, #233, #55 ) ;
#150 = EDGE_CURVE ( 'NONE', #245, #119, #153, .T. ) ;
#151 = VERTEX_POINT ( 'NONE', #58 ) ;
#152 = DIRECTION ( 'NONE',  ( 0.000000000000000000, 0.000000000000000000, 1.000000000000000000 ) ) ;
#153 = CIRCLE ( 'NONE', #155, 9.000000000000000000 ) ;
#154 = LINE ( 'NONE', #159, #222 ) ;
#155 = AXIS2_PLACEMENT_3D ( 'NONE', #243, #89, #102 ) ;
#156 = APPLICATION_CONTEXT ( 'configuration controlled 3d designs of mechanical parts and assemblies' ) ;
#157 = CARTESIAN_POINT ( 'NONE',  ( -12.00000000000000178, 0.000000000000000000, 7.000000000000000000 ) ) ;
#158 = EDGE_CURVE ( 'NONE', #119, #227, #181, .T. ) ;
#159 = CARTESIAN_POINT ( 'NONE',  ( 12.00000000000000178, 1.469576158976824144E-15, 7.000000000000000000 ) ) ;
#160 = UNCERTAINTY_MEASURE_WITH_UNIT (LENGTH_MEASURE( 1.000000000000000082E-05 ), #235, 'distance_accuracy_value', 'NONE');
#161 = CIRCLE ( 'NONE', #53, 12.00000000000000178 ) ;
#162 = CARTESIAN_POINT ( 'NONE',  ( 0.000000000000000000, 0.000000000000000000, 630.0000000000000000 ) ) ;
#163 = CARTESIAN_POINT ( 'NONE',  ( 0.000000000000000000, 0.000000000000000000, 7.000000000000000000 ) ) ;
#164 = APPROVAL ( #166, 'NEURÈENÝ' ) ;
#165 = AXIS2_PLACEMENT_3D ( 'NONE', #234, #252, #33 ) ;
#166 = APPROVAL_STATUS ( 'not_yet_approved' ) ;
#167 = APPROVAL_STATUS ( 'not_yet_approved' ) ;
#168 = COORDINATED_UNIVERSAL_TIME_OFFSET ( 1, 0, .AHEAD. ) ;
#169 = DIRECTION ( 'NONE',  ( 0.000000000000000000, 0.000000000000000000, 1.000000000000000000 ) ) ;
#170 = CALENDAR_DATE ( 2023, 12, 2 ) ;
#171 = ADVANCED_FACE ( 'NONE', ( #79 ), #146, .T. ) ;
#172 = EDGE_LOOP ( 'NONE', ( #134, #4, #9, #25 ) ) ;
#173 = MANIFOLD_SOLID_BREP ( 'Pøidat vysunutím3', #136 ) ;
#174 = AXIS2_PLACEMENT_3D ( 'NONE', #50, #169, #225 ) ;
#175 = SHAPE_DEFINITION_REPRESENTATION ( #77, #210 ) ;
#176 = EDGE_LOOP ( 'NONE', ( #49, #26 ) ) ;
#177 = DATE_AND_TIME ( #87, #96 ) ;
#178 = PLANE ( 'NONE',  #18 ) ;
#179 = AXIS2_PLACEMENT_3D ( 'NONE', #163, #86, #91 ) ;
#180 = DIRECTION ( 'NONE',  ( 0.000000000000000000, 0.000000000000000000, 1.000000000000000000 ) ) ;
#181 = LINE ( 'NONE', #131, #52 ) ;
#182 = APPLICATION_CONTEXT ( 'configuration controlled 3d designs of mechanical parts and assemblies' ) ;
#183 = DIRECTION ( 'NONE',  ( 1.000000000000000000, 0.000000000000000000, 0.000000000000000000 ) ) ;
#184 = CIRCLE ( 'NONE', #216, 12.00000000000000178 ) ;
#185 = CARTESIAN_POINT ( 'NONE',  ( 12.00000000000000178, 1.469576158976824144E-15, 0.000000000000000000 ) ) ;
#186 = ORGANIZATION ( 'NEURÈENÝ', 'NEURÈENÝ', '' ) ;
#187 = CARTESIAN_POINT ( 'NONE',  ( 9.000000000000000000, 1.102182119232617714E-15, 630.0000000000000000 ) ) ;
#188 = DIRECTION ( 'NONE',  ( 0.000000000000000000, 0.000000000000000000, 1.000000000000000000 ) ) ;
#189 = AXIS2_PLACEMENT_3D ( 'NONE', #137, #90, #64 ) ;
#190 = CC_DESIGN_PERSON_AND_ORGANIZATION_ASSIGNMENT ( #211, #217, ( #11 ) ) ;
#191 = CC_DESIGN_APPROVAL ( #233, ( #42 ) ) ;
#192 = APPROVAL_DATE_TIME ( #254, #164 ) ;
#193 = PERSON_AND_ORGANIZATION ( #116, #186 ) ;
#194 = SECURITY_CLASSIFICATION_LEVEL ( 'unclassified' ) ;
#195 = ORIENTED_EDGE ( 'NONE', *, *, #203, .T. ) ;
#196 = ORIENTED_EDGE ( 'NONE', *, *, #2, .T. ) ;
#197 = APPROVAL_ROLE ( '' ) ;
#198 = CYLINDRICAL_SURFACE ( 'NONE', #78, 12.00000000000000178 ) ;
#199 = ADVANCED_FACE ( 'NONE', ( #118 ), #198, .T. ) ;
#200 = CYLINDRICAL_SURFACE ( 'NONE', #250, 9.000000000000000000 ) ;
#201 = ORIENTED_EDGE ( 'NONE', *, *, #249, .T. ) ;
#202 = CARTESIAN_POINT ( 'NONE',  ( -9.000000000000000000, 0.000000000000000000, 7.000000000000000000 ) ) ;
#203 = EDGE_CURVE ( 'NONE', #45, #151, #145, .T. ) ;
#204 = DIRECTION ( 'NONE',  ( -0.000000000000000000, -0.000000000000000000, -1.000000000000000000 ) ) ;
#205 = DIRECTION ( 'NONE',  ( 0.000000000000000000, 0.000000000000000000, 1.000000000000000000 ) ) ;
#206 = DIRECTION ( 'NONE',  ( 1.000000000000000000, 0.000000000000000000, -0.000000000000000000 ) ) ;
#207 = PERSON_AND_ORGANIZATION ( #116, #186 ) ;
#208 = EDGE_CURVE ( 'NONE', #85, #238, #72, .T. ) ;
#209 = APPROVAL_DATE_TIME ( #129, #233 ) ;
#210 = ADVANCED_BREP_SHAPE_REPRESENTATION ( 'edac', ( #173, #251 ), #97 ) ;
#211 = PERSON_AND_ORGANIZATION ( #116, #186 ) ;
#212 = EDGE_LOOP ( 'NONE', ( #114, #224, #201, #83 ) ) ;
#213 = EDGE_CURVE ( 'NONE', #245, #7, #28, .T. ) ;
#214 = DIRECTION ( 'NONE',  ( -0.000000000000000000, -0.000000000000000000, -1.000000000000000000 ) ) ;
#215 = ORIENTED_EDGE ( 'NONE', *, *, #14, .T. ) ;
#216 = AXIS2_PLACEMENT_3D ( 'NONE', #8, #180, #68 ) ;
#217 = PERSON_AND_ORGANIZATION_ROLE ( 'classification_officer' ) ;
#218 = CARTESIAN_POINT ( 'NONE',  ( 0.000000000000000000, 0.000000000000000000, 7.000000000000000000 ) ) ;
#219 = DIRECTION ( 'NONE',  ( 1.000000000000000000, 0.000000000000000000, -0.000000000000000000 ) ) ;
#220 = CALENDAR_DATE ( 2023, 12, 2 ) ;
#221 = EDGE_LOOP ( 'NONE', ( #70, #57 ) ) ;
#222 = VECTOR ( 'NONE', #246, 1000.000000000000000 ) ;
#223 = AXIS2_PLACEMENT_3D ( 'NONE', #162, #247, #219 ) ;
#224 = ORIENTED_EDGE ( 'NONE', *, *, #203, .F. ) ;
#225 = DIRECTION ( 'NONE',  ( 1.000000000000000000, 0.000000000000000000, 0.000000000000000000 ) ) ;
#226 = CARTESIAN_POINT ( 'NONE',  ( 0.000000000000000000, 0.000000000000000000, 630.0000000000000000 ) ) ;
#227 = VERTEX_POINT ( 'NONE', #202 ) ;
#228 = CIRCLE ( 'NONE', #179, 9.000000000000000000 ) ;
#229 = DIRECTION ( 'NONE',  ( -0.000000000000000000, -0.000000000000000000, -1.000000000000000000 ) ) ;
#230 = AXIS2_PLACEMENT_3D ( 'NONE', #218, #244, #183 ) ;
#231 = APPLICATION_PROTOCOL_DEFINITION ( 'international standard', 'config_control_design', 1994, #182 ) ;
#232 = PERSON_AND_ORGANIZATION ( #116, #186 ) ;
#233 = APPROVAL ( #167, 'NEURÈENÝ' ) ;
#234 = CARTESIAN_POINT ( 'NONE',  ( 0.000000000000000000, 0.000000000000000000, 630.0000000000000000 ) ) ;
#235 =( LENGTH_UNIT ( ) NAMED_UNIT ( * ) SI_UNIT ( .MILLI., .METRE. ) );
#236 = CARTESIAN_POINT ( 'NONE',  ( 0.000000000000000000, 0.000000000000000000, 7.000000000000000000 ) ) ;
#237 = PERSON_AND_ORGANIZATION ( #116, #186 ) ;
#238 = VERTEX_POINT ( 'NONE', #106 ) ;
#239 = APPROVAL_STATUS ( 'not_yet_approved' ) ;
#240 = CC_DESIGN_DATE_AND_TIME_ASSIGNMENT ( #177, #6, ( #11 ) ) ;
#241 = EDGE_LOOP ( 'NONE', ( #195, #101 ) ) ;
#242 = DATE_AND_TIME ( #220, #138 ) ;
#243 = CARTESIAN_POINT ( 'NONE',  ( 0.000000000000000000, 0.000000000000000000, 630.0000000000000000 ) ) ;
#244 = DIRECTION ( 'NONE',  ( 0.000000000000000000, 0.000000000000000000, 1.000000000000000000 ) ) ;
#245 = VERTEX_POINT ( 'NONE', #187 ) ;
#246 = DIRECTION ( 'NONE',  ( -0.000000000000000000, -0.000000000000000000, -1.000000000000000000 ) ) ;
#247 = DIRECTION ( 'NONE',  ( 0.000000000000000000, 0.000000000000000000, 1.000000000000000000 ) ) ;
#248 = ORIENTED_EDGE ( 'NONE', *, *, #23, .F. ) ;
#249 = EDGE_CURVE ( 'NONE', #45, #238, #48, .T. ) ;
#250 = AXIS2_PLACEMENT_3D ( 'NONE', #226, #121, #29 ) ;
#251 = AXIS2_PLACEMENT_3D ( 'NONE', #143, #205, #73 ) ;
#252 = DIRECTION ( 'NONE',  ( -0.000000000000000000, -0.000000000000000000, -1.000000000000000000 ) ) ;
#253 = CYLINDRICAL_SURFACE ( 'NONE', #165, 9.000000000000000000 ) ;
#254 = DATE_AND_TIME ( #170, #31 ) ;
#255 = CARTESIAN_POINT ( 'NONE',  ( 0.000000000000000000, 0.000000000000000000, 7.000000000000000000 ) ) ;
ENDSEC;
END-ISO-10303-21;
