ISO-10303-21;
HEADER;
FILE_DESCRIPTION (( 'STEP AP203' ),
    '1' );
FILE_NAME ('ee3e.STEP',
    '2023-02-12T12:26:27',
    ( '' ),
    ( '' ),
    'SwSTEP 2.0',
    'SolidWorks 2019',
    '' );
FILE_SCHEMA (( 'CONFIG_CONTROL_DESIGN' ));
ENDSEC;

DATA;
#1 = DIRECTION ( 'NONE',  ( -0.000000000000000000, -0.000000000000000000, -1.000000000000000000 ) ) ;
#2 = DIRECTION ( 'NONE',  ( 1.000000000000000000, 0.000000000000000000, -0.000000000000000000 ) ) ;
#3 = APPROVAL_PERSON_ORGANIZATION ( #205, #172, #28 ) ;
#4 = ORIENTED_EDGE ( 'NONE', *, *, #204, .T. ) ;
#5 = ORIENTED_EDGE ( 'NONE', *, *, #247, .T. ) ;
#6 = CIRCLE ( 'NONE', #209, 5.000000000000000000 ) ;
#7 = ORIENTED_EDGE ( 'NONE', *, *, #243, .F. ) ;
#8 = EDGE_CURVE ( 'NONE', #23, #121, #45, .T. ) ;
#9 = EDGE_LOOP ( 'NONE', ( #61, #199, #116, #7 ) ) ;
#10 = COORDINATED_UNIVERSAL_TIME_OFFSET ( 1, 0, .AHEAD. ) ;
#11 =( LENGTH_UNIT ( ) NAMED_UNIT ( * ) SI_UNIT ( .MILLI., .METRE. ) );
#12 = CALENDAR_DATE ( 2023, 12, 2 ) ;
#13 = CARTESIAN_POINT ( 'NONE',  ( 5.000000000000000000, 6.123233995736766282E-16, 0.000000000000000000 ) ) ;
#14 = AXIS2_PLACEMENT_3D ( 'NONE', #36, #95, #154 ) ;
#15 = SHAPE_DEFINITION_REPRESENTATION ( #75, #206 ) ;
#16 = DIRECTION ( 'NONE',  ( 1.000000000000000000, 0.000000000000000000, 0.000000000000000000 ) ) ;
#17 = LOCAL_TIME ( 13, 26, 27.00000000000000000, #207 ) ;
#18 = PLANE ( 'NONE',  #178 ) ;
#19 = CARTESIAN_POINT ( 'NONE',  ( 0.000000000000000000, 0.000000000000000000, 0.000000000000000000 ) ) ;
#20 = CLOSED_SHELL ( 'NONE', ( #201, #254, #136, #174, #29, #59, #149 ) ) ;
#21 = EDGE_LOOP ( 'NONE', ( #62, #239, #138, #105 ) ) ;
#22 = CC_DESIGN_APPROVAL ( #172, ( #53 ) ) ;
#23 = VERTEX_POINT ( 'NONE', #97 ) ;
#24 = CARTESIAN_POINT ( 'NONE',  ( 0.000000000000000000, 0.000000000000000000, 0.000000000000000000 ) ) ;
#25 = AXIS2_PLACEMENT_3D ( 'NONE', #24, #159, #218 ) ;
#26 = PLANE ( 'NONE',  #25 ) ;
#27 = CIRCLE ( 'NONE', #191, 5.000000000000000000 ) ;
#28 = APPROVAL_ROLE ( '' ) ;
#29 = ADVANCED_FACE ( 'NONE', ( #220 ), #26, .F. ) ;
#30 = PERSON_AND_ORGANIZATION ( #171, #37 ) ;
#31 = APPROVAL_STATUS ( 'not_yet_approved' ) ;
#32 = DIRECTION ( 'NONE',  ( 0.000000000000000000, 0.000000000000000000, 1.000000000000000000 ) ) ;
#33 = CARTESIAN_POINT ( 'NONE',  ( 0.000000000000000000, 0.000000000000000000, 3.000000000000000000 ) ) ;
#34 = DIRECTION ( 'NONE',  ( 1.000000000000000000, 0.000000000000000000, 0.000000000000000000 ) ) ;
#35 = AXIS2_PLACEMENT_3D ( 'NONE', #213, #56, #192 ) ;
#36 = CARTESIAN_POINT ( 'NONE',  ( 0.000000000000000000, 0.000000000000000000, 800.0000000000000000 ) ) ;
#37 = ORGANIZATION ( 'NEURÈENÝ', 'NEURÈENÝ', '' ) ;
#38 = FACE_BOUND ( 'NONE', #242, .T. ) ;
#39 = VERTEX_POINT ( 'NONE', #101 ) ;
#40 = ORIENTED_EDGE ( 'NONE', *, *, #243, .T. ) ;
#41 = APPROVAL_PERSON_ORGANIZATION ( #107, #86, #150 ) ;
#42 = VERTEX_POINT ( 'NONE', #64 ) ;
#43 = ORIENTED_EDGE ( 'NONE', *, *, #119, .T. ) ;
#44 = ORIENTED_EDGE ( 'NONE', *, *, #68, .F. ) ;
#45 = CIRCLE ( 'NONE', #203, 2.600000000000000089 ) ;
#46 = ORIENTED_EDGE ( 'NONE', *, *, #204, .F. ) ;
#47 = PERSON_AND_ORGANIZATION_ROLE ( 'design_owner' ) ;
#48 = APPROVAL_STATUS ( 'not_yet_approved' ) ;
#49 = MANIFOLD_SOLID_BREP ( 'Pøidat vysunutím3', #20 ) ;
#50 = PERSON_AND_ORGANIZATION ( #171, #37 ) ;
#51 = MECHANICAL_CONTEXT ( 'NONE', #127, 'mechanical' ) ;
#52 = CARTESIAN_POINT ( 'NONE',  ( -2.600000000000000089, 0.000000000000000000, 800.0000000000000000 ) ) ;
#53 = PRODUCT_DEFINITION_FORMATION_WITH_SPECIFIED_SOURCE ( 'LIBOVOLNÝ', '', #250, .NOT_KNOWN. ) ;
#54 = APPROVAL_ROLE ( '' ) ;
#55 = DIRECTION ( 'NONE',  ( -1.000000000000000000, 0.000000000000000000, 0.000000000000000000 ) ) ;
#56 = DIRECTION ( 'NONE',  ( 0.000000000000000000, 0.000000000000000000, 1.000000000000000000 ) ) ;
#57 = CIRCLE ( 'NONE', #87, 5.000000000000000000 ) ;
#58 = DIRECTION ( 'NONE',  ( 0.000000000000000000, 0.000000000000000000, 1.000000000000000000 ) ) ;
#59 = ADVANCED_FACE ( 'NONE', ( #162 ), #117, .T. ) ;
#60 = EDGE_CURVE ( 'NONE', #223, #222, #57, .T. ) ;
#61 = ORIENTED_EDGE ( 'NONE', *, *, #119, .F. ) ;
#62 = ORIENTED_EDGE ( 'NONE', *, *, #247, .F. ) ;
#63 = VECTOR ( 'NONE', #210, 1000.000000000000000 ) ;
#64 = CARTESIAN_POINT ( 'NONE',  ( -2.600000000000000089, 0.000000000000000000, 800.0000000000000000 ) ) ;
#65 = APPROVAL ( #48, 'NEURÈENÝ' ) ;
#66 = VERTEX_POINT ( 'NONE', #195 ) ;
#67 = CC_DESIGN_PERSON_AND_ORGANIZATION_ASSIGNMENT ( #253, #164, ( #158 ) ) ;
#68 = EDGE_CURVE ( 'NONE', #202, #42, #228, .T. ) ;
#69 = LINE ( 'NONE', #132, #63 ) ;
#70 = CC_DESIGN_APPROVAL ( #86, ( #158 ) ) ;
#71 =( NAMED_UNIT ( * ) PLANE_ANGLE_UNIT ( ) SI_UNIT ( $, .RADIAN. ) );
#72 = APPROVAL_DATE_TIME ( #104, #172 ) ;
#73 = APPROVAL_STATUS ( 'not_yet_approved' ) ;
#74 = DIRECTION ( 'NONE',  ( -1.000000000000000000, 0.000000000000000000, 0.000000000000000000 ) ) ;
#75 = PRODUCT_DEFINITION_SHAPE ( 'NONE', 'NONE',  #158 ) ;
#76 = CARTESIAN_POINT ( 'NONE',  ( -2.600000000000000089, 0.000000000000000000, 3.000000000000000000 ) ) ;
#77 = PERSON_AND_ORGANIZATION_ROLE ( 'design_supplier' ) ;
#78 = CARTESIAN_POINT ( 'NONE',  ( 0.000000000000000000, 0.000000000000000000, 3.000000000000000000 ) ) ;
#79 = CARTESIAN_POINT ( 'NONE',  ( 0.000000000000000000, 0.000000000000000000, 3.000000000000000000 ) ) ;
#80 = FACE_OUTER_BOUND ( 'NONE', #99, .T. ) ;
#81 = DIRECTION ( 'NONE',  ( 1.000000000000000000, 0.000000000000000000, 0.000000000000000000 ) ) ;
#82 = EDGE_LOOP ( 'NONE', ( #44, #5, #244, #118 ) ) ;
#83 = ORIENTED_EDGE ( 'NONE', *, *, #194, .F. ) ;
#84 = AXIS2_PLACEMENT_3D ( 'NONE', #33, #110, #186 ) ;
#85 = DIRECTION ( 'NONE',  ( -1.000000000000000000, 0.000000000000000000, 0.000000000000000000 ) ) ;
#86 = APPROVAL ( #73, 'NEURÈENÝ' ) ;
#87 = AXIS2_PLACEMENT_3D ( 'NONE', #19, #252, #16 ) ;
#88 = CYLINDRICAL_SURFACE ( 'NONE', #84, 5.000000000000000000 ) ;
#89 = DATE_AND_TIME ( #12, #17 ) ;
#90 = DIRECTION ( 'NONE',  ( 0.000000000000000000, 0.000000000000000000, 1.000000000000000000 ) ) ;
#91 = LINE ( 'NONE', #211, #113 ) ;
#92 = CARTESIAN_POINT ( 'NONE',  ( -5.000000000000000000, 0.000000000000000000, 3.000000000000000000 ) ) ;
#93 = PLANE ( 'NONE',  #212 ) ;
#94 = DIRECTION ( 'NONE',  ( 1.000000000000000000, 0.000000000000000000, 0.000000000000000000 ) ) ;
#95 = DIRECTION ( 'NONE',  ( 0.000000000000000000, 0.000000000000000000, 1.000000000000000000 ) ) ;
#96 = APPLICATION_CONTEXT ( 'configuration controlled 3d designs of mechanical parts and assemblies' ) ;
#97 = CARTESIAN_POINT ( 'NONE',  ( 2.600000000000000089, 3.184081677783118191E-16, 3.000000000000000000 ) ) ;
#98 = EDGE_LOOP ( 'NONE', ( #240, #177 ) ) ;
#99 = EDGE_LOOP ( 'NONE', ( #143, #43 ) ) ;
#100 = EDGE_CURVE ( 'NONE', #42, #121, #193, .T. ) ;
#101 = CARTESIAN_POINT ( 'NONE',  ( 5.000000000000000000, 6.123233995736766282E-16, 3.000000000000000000 ) ) ;
#102 = VECTOR ( 'NONE', #190, 1000.000000000000000 ) ;
#103 = CC_DESIGN_PERSON_AND_ORGANIZATION_ASSIGNMENT ( #109, #77, ( #53 ) ) ;
#104 = DATE_AND_TIME ( #152, #181 ) ;
#105 = ORIENTED_EDGE ( 'NONE', *, *, #141, .T. ) ;
#106 = COORDINATED_UNIVERSAL_TIME_OFFSET ( 1, 0, .AHEAD. ) ;
#107 = PERSON_AND_ORGANIZATION ( #171, #37 ) ;
#108 = DIRECTION ( 'NONE',  ( 1.000000000000000000, 0.000000000000000000, 0.000000000000000000 ) ) ;
#109 = PERSON_AND_ORGANIZATION ( #171, #37 ) ;
#110 = DIRECTION ( 'NONE',  ( -0.000000000000000000, -0.000000000000000000, -1.000000000000000000 ) ) ;
#111 = CYLINDRICAL_SURFACE ( 'NONE', #145, 5.000000000000000000 ) ;
#112 = CIRCLE ( 'NONE', #35, 2.600000000000000089 ) ;
#113 = VECTOR ( 'NONE', #114, 1000.000000000000000 ) ;
#114 = DIRECTION ( 'NONE',  ( -0.000000000000000000, -0.000000000000000000, -1.000000000000000000 ) ) ;
#115 = DIRECTION ( 'NONE',  ( 0.000000000000000000, 0.000000000000000000, 1.000000000000000000 ) ) ;
#116 = ORIENTED_EDGE ( 'NONE', *, *, #60, .T. ) ;
#117 = CYLINDRICAL_SURFACE ( 'NONE', #217, 2.600000000000000089 ) ;
#118 = ORIENTED_EDGE ( 'NONE', *, *, #100, .F. ) ;
#119 = EDGE_CURVE ( 'NONE', #39, #66, #27, .T. ) ;
#120 = EDGE_LOOP ( 'NONE', ( #46, #216 ) ) ;
#121 = VERTEX_POINT ( 'NONE', #76 ) ;
#122 = LOCAL_TIME ( 13, 26, 27.00000000000000000, #128 ) ;
#123 = CC_DESIGN_DATE_AND_TIME_ASSIGNMENT ( #89, #148, ( #224 ) ) ;
#124 = DATE_TIME_ROLE ( 'creation_date' ) ;
#125 = CC_DESIGN_PERSON_AND_ORGANIZATION_ASSIGNMENT ( #153, #47, ( #250 ) ) ;
#126 = PERSON_AND_ORGANIZATION_ROLE ( 'creator' ) ;
#127 = APPLICATION_CONTEXT ( 'configuration controlled 3d designs of mechanical parts and assemblies' ) ;
#128 = COORDINATED_UNIVERSAL_TIME_OFFSET ( 1, 0, .AHEAD. ) ;
#129 = APPROVAL_PERSON_ORGANIZATION ( #30, #65, #54 ) ;
#130 = CARTESIAN_POINT ( 'NONE',  ( 0.000000000000000000, 0.000000000000000000, 800.0000000000000000 ) ) ;
#131 = SECURITY_CLASSIFICATION_LEVEL ( 'unclassified' ) ;
#132 = CARTESIAN_POINT ( 'NONE',  ( 2.600000000000000089, 3.184081677783118191E-16, 800.0000000000000000 ) ) ;
#133 = FACE_OUTER_BOUND ( 'NONE', #98, .T. ) ;
#134 = CARTESIAN_POINT ( 'NONE',  ( 0.000000000000000000, 0.000000000000000000, 3.000000000000000000 ) ) ;
#135 = LINE ( 'NONE', #92, #102 ) ;
#136 = ADVANCED_FACE ( 'NONE', ( #156 ), #111, .T. ) ;
#137 = VECTOR ( 'NONE', #155, 1000.000000000000000 ) ;
#138 = ORIENTED_EDGE ( 'NONE', *, *, #100, .T. ) ;
#139 = CC_DESIGN_APPROVAL ( #65, ( #224 ) ) ;
#140 = ORIENTED_EDGE ( 'NONE', *, *, #8, .F. ) ;
#141 = EDGE_CURVE ( 'NONE', #121, #23, #112, .T. ) ;
#142 = CARTESIAN_POINT ( 'NONE',  ( 0.000000000000000000, 0.000000000000000000, 800.0000000000000000 ) ) ;
#143 = ORIENTED_EDGE ( 'NONE', *, *, #194, .T. ) ;
#144 = DESIGN_CONTEXT ( 'detailed design', #96, 'design' ) ;
#145 = AXIS2_PLACEMENT_3D ( 'NONE', #78, #170, #55 ) ;
#146 = PRODUCT_RELATED_PRODUCT_CATEGORY ( 'detail', '', ( #250 ) ) ;
#147 = CALENDAR_DATE ( 2023, 12, 2 ) ;
#148 = DATE_TIME_ROLE ( 'classification_date' ) ;
#149 = ADVANCED_FACE ( 'NONE', ( #133 ), #18, .T. ) ;
#150 = APPROVAL_ROLE ( '' ) ;
#151 = DIRECTION ( 'NONE',  ( 0.000000000000000000, 0.000000000000000000, 1.000000000000000000 ) ) ;
#152 = CALENDAR_DATE ( 2023, 12, 2 ) ;
#153 = PERSON_AND_ORGANIZATION ( #171, #37 ) ;
#154 = DIRECTION ( 'NONE',  ( 1.000000000000000000, 0.000000000000000000, 0.000000000000000000 ) ) ;
#155 = DIRECTION ( 'NONE',  ( -0.000000000000000000, -0.000000000000000000, -1.000000000000000000 ) ) ;
#156 = FACE_OUTER_BOUND ( 'NONE', #160, .T. ) ;
#157 = CARTESIAN_POINT ( 'NONE',  ( 0.000000000000000000, 0.000000000000000000, 800.0000000000000000 ) ) ;
#158 = PRODUCT_DEFINITION ( 'NEZNÁMÝ', '', #53, #144 ) ;
#159 = DIRECTION ( 'NONE',  ( 0.000000000000000000, 0.000000000000000000, 1.000000000000000000 ) ) ;
#160 = EDGE_LOOP ( 'NONE', ( #198, #83, #40, #4 ) ) ;
#161 = EDGE_CURVE ( 'NONE', #39, #223, #91, .T. ) ;
#162 = FACE_OUTER_BOUND ( 'NONE', #21, .T. ) ;
#163 = AXIS2_PLACEMENT_3D ( 'NONE', #130, #1, #74 ) ;
#164 = PERSON_AND_ORGANIZATION_ROLE ( 'creator' ) ;
#165 = CARTESIAN_POINT ( 'NONE',  ( 0.000000000000000000, 0.000000000000000000, 0.000000000000000000 ) ) ;
#166 =( NAMED_UNIT ( * ) SI_UNIT ( $, .STERADIAN. ) SOLID_ANGLE_UNIT ( ) );
#167 = CIRCLE ( 'NONE', #197, 2.600000000000000089 ) ;
#168 = DATE_AND_TIME ( #233, #179 ) ;
#169 = AXIS2_PLACEMENT_3D ( 'NONE', #230, #58, #108 ) ;
#170 = DIRECTION ( 'NONE',  ( -0.000000000000000000, -0.000000000000000000, -1.000000000000000000 ) ) ;
#171 = PERSON ( 'NEURÈENÝ', 'NEURÈENÝ', 'NEURÈENÝ', ('NEURÈENÝ'), ('NEURÈENÝ'), ('NEURÈENÝ') ) ;
#172 = APPROVAL ( #31, 'NEURÈENÝ' ) ;
#173 = FACE_OUTER_BOUND ( 'NONE', #82, .T. ) ;
#174 = ADVANCED_FACE ( 'NONE', ( #38, #80 ), #93, .T. ) ;
#175 = CARTESIAN_POINT ( 'NONE',  ( 0.000000000000000000, 0.000000000000000000, 3.000000000000000000 ) ) ;
#176 =( GEOMETRIC_REPRESENTATION_CONTEXT ( 3 ) GLOBAL_UNCERTAINTY_ASSIGNED_CONTEXT ( ( #189 ) ) GLOBAL_UNIT_ASSIGNED_CONTEXT ( ( #11, #71, #166 ) ) REPRESENTATION_CONTEXT ( 'NONE', 'WORKASPACE' ) );
#177 = ORIENTED_EDGE ( 'NONE', *, *, #68, .T. ) ;
#178 = AXIS2_PLACEMENT_3D ( 'NONE', #236, #115, #238 ) ;
#179 = LOCAL_TIME ( 13, 26, 27.00000000000000000, #10 ) ;
#180 = DIRECTION ( 'NONE',  ( -0.000000000000000000, -0.000000000000000000, -1.000000000000000000 ) ) ;
#181 = LOCAL_TIME ( 13, 26, 27.00000000000000000, #226 ) ;
#182 = EDGE_CURVE ( 'NONE', #42, #202, #167, .T. ) ;
#183 = PERSON_AND_ORGANIZATION_ROLE ( 'classification_officer' ) ;
#184 = DIRECTION ( 'NONE',  ( 1.000000000000000000, 0.000000000000000000, 0.000000000000000000 ) ) ;
#185 = CALENDAR_DATE ( 2023, 12, 2 ) ;
#186 = DIRECTION ( 'NONE',  ( -1.000000000000000000, 0.000000000000000000, 0.000000000000000000 ) ) ;
#187 = CARTESIAN_POINT ( 'NONE',  ( -5.000000000000000000, 0.000000000000000000, 0.000000000000000000 ) ) ;
#188 = APPROVAL_DATE_TIME ( #232, #65 ) ;
#189 = UNCERTAINTY_MEASURE_WITH_UNIT (LENGTH_MEASURE( 1.000000000000000082E-05 ), #11, 'distance_accuracy_value', 'NONE');
#190 = DIRECTION ( 'NONE',  ( -0.000000000000000000, -0.000000000000000000, -1.000000000000000000 ) ) ;
#191 = AXIS2_PLACEMENT_3D ( 'NONE', #175, #32, #34 ) ;
#192 = DIRECTION ( 'NONE',  ( 1.000000000000000000, 0.000000000000000000, 0.000000000000000000 ) ) ;
#193 = LINE ( 'NONE', #52, #137 ) ;
#194 = EDGE_CURVE ( 'NONE', #66, #39, #6, .T. ) ;
#195 = CARTESIAN_POINT ( 'NONE',  ( -5.000000000000000000, 0.000000000000000000, 3.000000000000000000 ) ) ;
#196 = DIRECTION ( 'NONE',  ( 0.000000000000000000, 0.000000000000000000, 1.000000000000000000 ) ) ;
#197 = AXIS2_PLACEMENT_3D ( 'NONE', #157, #151, #215 ) ;
#198 = ORIENTED_EDGE ( 'NONE', *, *, #161, .F. ) ;
#199 = ORIENTED_EDGE ( 'NONE', *, *, #161, .T. ) ;
#200 = CARTESIAN_POINT ( 'NONE',  ( 0.000000000000000000, 0.000000000000000000, 3.000000000000000000 ) ) ;
#201 = ADVANCED_FACE ( 'NONE', ( #173 ), #208, .T. ) ;
#202 = VERTEX_POINT ( 'NONE', #237 ) ;
#203 = AXIS2_PLACEMENT_3D ( 'NONE', #200, #196, #81 ) ;
#204 = EDGE_CURVE ( 'NONE', #222, #223, #234, .T. ) ;
#205 = PERSON_AND_ORGANIZATION ( #171, #37 ) ;
#206 = ADVANCED_BREP_SHAPE_REPRESENTATION ( 'ee3e', ( #49, #219 ), #176 ) ;
#207 = COORDINATED_UNIVERSAL_TIME_OFFSET ( 1, 0, .AHEAD. ) ;
#208 = CYLINDRICAL_SURFACE ( 'NONE', #163, 2.600000000000000089 ) ;
#209 = AXIS2_PLACEMENT_3D ( 'NONE', #79, #249, #94 ) ;
#210 = DIRECTION ( 'NONE',  ( -0.000000000000000000, -0.000000000000000000, -1.000000000000000000 ) ) ;
#211 = CARTESIAN_POINT ( 'NONE',  ( 5.000000000000000000, 6.123233995736766282E-16, 3.000000000000000000 ) ) ;
#212 = AXIS2_PLACEMENT_3D ( 'NONE', #134, #255, #2 ) ;
#213 = CARTESIAN_POINT ( 'NONE',  ( 0.000000000000000000, 0.000000000000000000, 3.000000000000000000 ) ) ;
#214 = CC_DESIGN_SECURITY_CLASSIFICATION ( #224, ( #53 ) ) ;
#215 = DIRECTION ( 'NONE',  ( 1.000000000000000000, 0.000000000000000000, 0.000000000000000000 ) ) ;
#216 = ORIENTED_EDGE ( 'NONE', *, *, #60, .F. ) ;
#217 = AXIS2_PLACEMENT_3D ( 'NONE', #142, #180, #85 ) ;
#218 = DIRECTION ( 'NONE',  ( 1.000000000000000000, 0.000000000000000000, -0.000000000000000000 ) ) ;
#219 = AXIS2_PLACEMENT_3D ( 'NONE', #165, #90, #184 ) ;
#220 = FACE_OUTER_BOUND ( 'NONE', #120, .T. ) ;
#221 = CC_DESIGN_PERSON_AND_ORGANIZATION_ASSIGNMENT ( #50, #183, ( #224 ) ) ;
#222 = VERTEX_POINT ( 'NONE', #187 ) ;
#223 = VERTEX_POINT ( 'NONE', #13 ) ;
#224 = SECURITY_CLASSIFICATION ( '', '', #131 ) ;
#225 = DATE_AND_TIME ( #147, #122 ) ;
#226 = COORDINATED_UNIVERSAL_TIME_OFFSET ( 1, 0, .AHEAD. ) ;
#227 = FACE_OUTER_BOUND ( 'NONE', #9, .T. ) ;
#228 = CIRCLE ( 'NONE', #14, 2.600000000000000089 ) ;
#229 = APPROVAL_DATE_TIME ( #168, #86 ) ;
#230 = CARTESIAN_POINT ( 'NONE',  ( 0.000000000000000000, 0.000000000000000000, 0.000000000000000000 ) ) ;
#231 = ORIENTED_EDGE ( 'NONE', *, *, #141, .F. ) ;
#232 = DATE_AND_TIME ( #185, #245 ) ;
#233 = CALENDAR_DATE ( 2023, 12, 2 ) ;
#234 = CIRCLE ( 'NONE', #169, 5.000000000000000000 ) ;
#235 = PERSON_AND_ORGANIZATION ( #171, #37 ) ;
#236 = CARTESIAN_POINT ( 'NONE',  ( 0.000000000000000000, 0.000000000000000000, 800.0000000000000000 ) ) ;
#237 = CARTESIAN_POINT ( 'NONE',  ( 2.600000000000000089, 3.184081677783118191E-16, 800.0000000000000000 ) ) ;
#238 = DIRECTION ( 'NONE',  ( 1.000000000000000000, 0.000000000000000000, -0.000000000000000000 ) ) ;
#239 = ORIENTED_EDGE ( 'NONE', *, *, #182, .F. ) ;
#240 = ORIENTED_EDGE ( 'NONE', *, *, #182, .T. ) ;
#241 = CC_DESIGN_DATE_AND_TIME_ASSIGNMENT ( #225, #124, ( #158 ) ) ;
#242 = EDGE_LOOP ( 'NONE', ( #231, #140 ) ) ;
#243 = EDGE_CURVE ( 'NONE', #66, #222, #135, .T. ) ;
#244 = ORIENTED_EDGE ( 'NONE', *, *, #8, .T. ) ;
#245 = LOCAL_TIME ( 13, 26, 27.00000000000000000, #106 ) ;
#246 = CC_DESIGN_PERSON_AND_ORGANIZATION_ASSIGNMENT ( #235, #126, ( #53 ) ) ;
#247 = EDGE_CURVE ( 'NONE', #202, #23, #69, .T. ) ;
#248 = APPLICATION_PROTOCOL_DEFINITION ( 'international standard', 'config_control_design', 1994, #96 ) ;
#249 = DIRECTION ( 'NONE',  ( 0.000000000000000000, 0.000000000000000000, 1.000000000000000000 ) ) ;
#250 = PRODUCT ( 'ee3e', 'ee3e', '', ( #51 ) ) ;
#251 = APPLICATION_PROTOCOL_DEFINITION ( 'international standard', 'config_control_design', 1994, #127 ) ;
#252 = DIRECTION ( 'NONE',  ( 0.000000000000000000, 0.000000000000000000, 1.000000000000000000 ) ) ;
#253 = PERSON_AND_ORGANIZATION ( #171, #37 ) ;
#254 = ADVANCED_FACE ( 'NONE', ( #227 ), #88, .T. ) ;
#255 = DIRECTION ( 'NONE',  ( 0.000000000000000000, 0.000000000000000000, 1.000000000000000000 ) ) ;
ENDSEC;
END-ISO-10303-21;
