ISO-10303-21;
HEADER;
FILE_DESCRIPTION (( 'STEP AP203' ),
    '1' );
FILE_NAME ('7bef.STEP',
    '2023-02-12T10:53:16',
    ( '' ),
    ( '' ),
    'SwSTEP 2.0',
    'SolidWorks 2019',
    '' );
FILE_SCHEMA (( 'CONFIG_CONTROL_DESIGN' ));
ENDSEC;

DATA;
#1 = EDGE_CURVE ( 'NONE', #210, #245, #53, .T. ) ;
#2 = APPLICATION_PROTOCOL_DEFINITION ( 'international standard', 'config_control_design', 1994, #76 ) ;
#3 = VERTEX_POINT ( 'NONE', #115 ) ;
#4 = APPROVAL ( #109, 'NEURÈENÝ' ) ;
#5 = APPROVAL_PERSON_ORGANIZATION ( #182, #10, #108 ) ;
#6 = EDGE_LOOP ( 'NONE', ( #75, #94, #219, #239 ) ) ;
#7 = APPROVAL ( #33, 'NEURÈENÝ' ) ;
#8 = AXIS2_PLACEMENT_3D ( 'NONE', #21, #154, #117 ) ;
#9 = CARTESIAN_POINT ( 'NONE',  ( -7.000000000000000888, 0.000000000000000000, 160.0000000000000000 ) ) ;
#10 = APPROVAL ( #233, 'NEURÈENÝ' ) ;
#11 = CARTESIAN_POINT ( 'NONE',  ( 0.000000000000000000, 0.000000000000000000, 7.000000000000000000 ) ) ;
#12 = CC_DESIGN_DATE_AND_TIME_ASSIGNMENT ( #164, #36, ( #181 ) ) ;
#13 = DATE_TIME_ROLE ( 'creation_date' ) ;
#14 = DIRECTION ( 'NONE',  ( 1.000000000000000000, 0.000000000000000000, 0.000000000000000000 ) ) ;
#15 =( LENGTH_UNIT ( ) NAMED_UNIT ( * ) SI_UNIT ( .MILLI., .METRE. ) );
#16 = ORIENTED_EDGE ( 'NONE', *, *, #1, .T. ) ;
#17 = COORDINATED_UNIVERSAL_TIME_OFFSET ( 1, 0, .AHEAD. ) ;
#18 = EDGE_LOOP ( 'NONE', ( #149, #152 ) ) ;
#19 = MECHANICAL_CONTEXT ( 'NONE', #111, 'mechanical' ) ;
#20 = PRODUCT_RELATED_PRODUCT_CATEGORY ( 'detail', '', ( #51 ) ) ;
#21 = CARTESIAN_POINT ( 'NONE',  ( 0.000000000000000000, 0.000000000000000000, 160.0000000000000000 ) ) ;
#22 = FACE_OUTER_BOUND ( 'NONE', #173, .T. ) ;
#23 = ORIENTED_EDGE ( 'NONE', *, *, #145, .F. ) ;
#24 = ORIENTED_EDGE ( 'NONE', *, *, #39, .T. ) ;
#25 = APPROVAL_PERSON_ORGANIZATION ( #170, #4, #185 ) ;
#26 = CC_DESIGN_PERSON_AND_ORGANIZATION_ASSIGNMENT ( #249, #86, ( #99 ) ) ;
#27 = CARTESIAN_POINT ( 'NONE',  ( -11.00000000000000000, 0.000000000000000000, 7.000000000000000000 ) ) ;
#28 = DIRECTION ( 'NONE',  ( 0.000000000000000000, 0.000000000000000000, 1.000000000000000000 ) ) ;
#29 = DIRECTION ( 'NONE',  ( -0.000000000000000000, -0.000000000000000000, -1.000000000000000000 ) ) ;
#30 = APPROVAL_DATE_TIME ( #127, #10 ) ;
#31 = DIRECTION ( 'NONE',  ( 1.000000000000000000, 0.000000000000000000, 0.000000000000000000 ) ) ;
#32 = PERSON_AND_ORGANIZATION_ROLE ( 'design_supplier' ) ;
#33 = APPROVAL_STATUS ( 'not_yet_approved' ) ;
#34 = EDGE_CURVE ( 'NONE', #136, #3, #190, .T. ) ;
#35 = AXIS2_PLACEMENT_3D ( 'NONE', #97, #240, #63 ) ;
#36 = DATE_TIME_ROLE ( 'classification_date' ) ;
#37 = PERSON ( 'NEURÈENÝ', 'NEURÈENÝ', 'NEURÈENÝ', ('NEURÈENÝ'), ('NEURÈENÝ'), ('NEURÈENÝ') ) ;
#38 = DIRECTION ( 'NONE',  ( 0.000000000000000000, 0.000000000000000000, 1.000000000000000000 ) ) ;
#39 = EDGE_CURVE ( 'NONE', #187, #136, #193, .T. ) ;
#40 = VECTOR ( 'NONE', #247, 1000.000000000000000 ) ;
#41 = DIRECTION ( 'NONE',  ( 0.000000000000000000, 0.000000000000000000, 1.000000000000000000 ) ) ;
#42 = CARTESIAN_POINT ( 'NONE',  ( 7.000000000000000888, 8.572527594031474176E-16, 160.0000000000000000 ) ) ;
#43 = CIRCLE ( 'NONE', #113, 11.00000000000000000 ) ;
#44 = ORIENTED_EDGE ( 'NONE', *, *, #157, .F. ) ;
#45 = CC_DESIGN_DATE_AND_TIME_ASSIGNMENT ( #178, #13, ( #220 ) ) ;
#46 = CC_DESIGN_APPROVAL ( #7, ( #99 ) ) ;
#47 = ADVANCED_FACE ( 'NONE', ( #83 ), #156, .T. ) ;
#48 = CARTESIAN_POINT ( 'NONE',  ( -11.00000000000000000, 0.000000000000000000, 0.000000000000000000 ) ) ;
#49 = CIRCLE ( 'NONE', #186, 7.000000000000000888 ) ;
#50 = CARTESIAN_POINT ( 'NONE',  ( 0.000000000000000000, 0.000000000000000000, 7.000000000000000000 ) ) ;
#51 = PRODUCT ( '7bef', '7bef', '', ( #19 ) ) ;
#52 = CARTESIAN_POINT ( 'NONE',  ( 0.000000000000000000, 0.000000000000000000, 160.0000000000000000 ) ) ;
#53 = CIRCLE ( 'NONE', #250, 11.00000000000000000 ) ;
#54 =( NAMED_UNIT ( * ) PLANE_ANGLE_UNIT ( ) SI_UNIT ( $, .RADIAN. ) );
#55 = CC_DESIGN_PERSON_AND_ORGANIZATION_ASSIGNMENT ( #69, #32, ( #99 ) ) ;
#56 = CALENDAR_DATE ( 2023, 12, 2 ) ;
#57 = CC_DESIGN_PERSON_AND_ORGANIZATION_ASSIGNMENT ( #64, #72, ( #51 ) ) ;
#58 = CLOSED_SHELL ( 'NONE', ( #167, #175, #107, #153, #125, #235, #47 ) ) ;
#59 =( GEOMETRIC_REPRESENTATION_CONTEXT ( 3 ) GLOBAL_UNCERTAINTY_ASSIGNED_CONTEXT ( ( #183 ) ) GLOBAL_UNIT_ASSIGNED_CONTEXT ( ( #15, #54, #158 ) ) REPRESENTATION_CONTEXT ( 'NONE', 'WORKASPACE' ) );
#60 = ORIENTED_EDGE ( 'NONE', *, *, #116, .T. ) ;
#61 = DIRECTION ( 'NONE',  ( 1.000000000000000000, 0.000000000000000000, 0.000000000000000000 ) ) ;
#62 = CIRCLE ( 'NONE', #213, 7.000000000000000888 ) ;
#63 = DIRECTION ( 'NONE',  ( 1.000000000000000000, 0.000000000000000000, -0.000000000000000000 ) ) ;
#64 = PERSON_AND_ORGANIZATION ( #37, #93 ) ;
#65 = LINE ( 'NONE', #42, #212 ) ;
#66 = PLANE ( 'NONE',  #119 ) ;
#67 = CARTESIAN_POINT ( 'NONE',  ( 0.000000000000000000, 0.000000000000000000, 160.0000000000000000 ) ) ;
#68 = EDGE_CURVE ( 'NONE', #245, #192, #138, .T. ) ;
#69 = PERSON_AND_ORGANIZATION ( #37, #93 ) ;
#70 = CARTESIAN_POINT ( 'NONE',  ( 11.00000000000000000, 1.347111479062088405E-15, 0.000000000000000000 ) ) ;
#71 = DIRECTION ( 'NONE',  ( -1.000000000000000000, 0.000000000000000000, 0.000000000000000000 ) ) ;
#72 = PERSON_AND_ORGANIZATION_ROLE ( 'design_owner' ) ;
#73 = CARTESIAN_POINT ( 'NONE',  ( 7.000000000000000888, 8.572527594031474176E-16, 160.0000000000000000 ) ) ;
#74 = SHAPE_DEFINITION_REPRESENTATION ( #141, #244 ) ;
#75 = ORIENTED_EDGE ( 'NONE', *, *, #116, .F. ) ;
#76 = APPLICATION_CONTEXT ( 'configuration controlled 3d designs of mechanical parts and assemblies' ) ;
#77 = AXIS2_PLACEMENT_3D ( 'NONE', #67, #123, #102 ) ;
#78 = EDGE_LOOP ( 'NONE', ( #122, #24 ) ) ;
#79 = CALENDAR_DATE ( 2023, 12, 2 ) ;
#80 = ORIENTED_EDGE ( 'NONE', *, *, #39, .F. ) ;
#81 = ORIENTED_EDGE ( 'NONE', *, *, #1, .F. ) ;
#82 = DIRECTION ( 'NONE',  ( -0.000000000000000000, -0.000000000000000000, -1.000000000000000000 ) ) ;
#83 = FACE_OUTER_BOUND ( 'NONE', #78, .T. ) ;
#84 = DIRECTION ( 'NONE',  ( 0.000000000000000000, 0.000000000000000000, 1.000000000000000000 ) ) ;
#85 = DIRECTION ( 'NONE',  ( 1.000000000000000000, 0.000000000000000000, -0.000000000000000000 ) ) ;
#86 = PERSON_AND_ORGANIZATION_ROLE ( 'creator' ) ;
#87 = VECTOR ( 'NONE', #191, 1000.000000000000000 ) ;
#88 = DIRECTION ( 'NONE',  ( -1.000000000000000000, 0.000000000000000000, 0.000000000000000000 ) ) ;
#89 = LOCAL_TIME ( 11, 53, 16.00000000000000000, #131 ) ;
#90 = DIRECTION ( 'NONE',  ( 1.000000000000000000, 0.000000000000000000, 0.000000000000000000 ) ) ;
#91 = CC_DESIGN_APPROVAL ( #4, ( #181 ) ) ;
#92 = ORIENTED_EDGE ( 'NONE', *, *, #241, .T. ) ;
#93 = ORGANIZATION ( 'NEURÈENÝ', 'NEURÈENÝ', '' ) ;
#94 = ORIENTED_EDGE ( 'NONE', *, *, #253, .F. ) ;
#95 = PERSON_AND_ORGANIZATION ( #37, #93 ) ;
#96 = CARTESIAN_POINT ( 'NONE',  ( 0.000000000000000000, 0.000000000000000000, 0.000000000000000000 ) ) ;
#97 = CARTESIAN_POINT ( 'NONE',  ( 0.000000000000000000, 0.000000000000000000, 160.0000000000000000 ) ) ;
#98 = CARTESIAN_POINT ( 'NONE',  ( 0.000000000000000000, 0.000000000000000000, 7.000000000000000000 ) ) ;
#99 = PRODUCT_DEFINITION_FORMATION_WITH_SPECIFIED_SOURCE ( 'LIBOVOLNÝ', '', #51, .NOT_KNOWN. ) ;
#100 = DIRECTION ( 'NONE',  ( -0.000000000000000000, -0.000000000000000000, -1.000000000000000000 ) ) ;
#101 = CARTESIAN_POINT ( 'NONE',  ( 0.000000000000000000, 0.000000000000000000, 0.000000000000000000 ) ) ;
#102 = DIRECTION ( 'NONE',  ( -1.000000000000000000, 0.000000000000000000, 0.000000000000000000 ) ) ;
#103 = CYLINDRICAL_SURFACE ( 'NONE', #208, 7.000000000000000888 ) ;
#104 = CARTESIAN_POINT ( 'NONE',  ( 11.00000000000000000, 1.347111479062088405E-15, 7.000000000000000000 ) ) ;
#105 = APPROVAL_DATE_TIME ( #209, #7 ) ;
#106 = COORDINATED_UNIVERSAL_TIME_OFFSET ( 1, 0, .AHEAD. ) ;
#107 = ADVANCED_FACE ( 'NONE', ( #22 ), #243, .T. ) ;
#108 = APPROVAL_ROLE ( '' ) ;
#109 = APPROVAL_STATUS ( 'not_yet_approved' ) ;
#110 = AXIS2_PLACEMENT_3D ( 'NONE', #52, #128, #204 ) ;
#111 = APPLICATION_CONTEXT ( 'configuration controlled 3d designs of mechanical parts and assemblies' ) ;
#112 = ORIENTED_EDGE ( 'NONE', *, *, #157, .T. ) ;
#113 = AXIS2_PLACEMENT_3D ( 'NONE', #251, #248, #90 ) ;
#114 = ORIENTED_EDGE ( 'NONE', *, *, #68, .F. ) ;
#115 = CARTESIAN_POINT ( 'NONE',  ( -7.000000000000000888, 0.000000000000000000, 7.000000000000000000 ) ) ;
#116 = EDGE_CURVE ( 'NONE', #187, #234, #65, .T. ) ;
#117 = DIRECTION ( 'NONE',  ( 1.000000000000000000, 0.000000000000000000, 0.000000000000000000 ) ) ;
#118 = ORIENTED_EDGE ( 'NONE', *, *, #160, .T. ) ;
#119 = AXIS2_PLACEMENT_3D ( 'NONE', #140, #222, #121 ) ;
#120 = DIRECTION ( 'NONE',  ( -0.000000000000000000, -0.000000000000000000, -1.000000000000000000 ) ) ;
#121 = DIRECTION ( 'NONE',  ( 1.000000000000000000, 0.000000000000000000, -0.000000000000000000 ) ) ;
#122 = ORIENTED_EDGE ( 'NONE', *, *, #253, .T. ) ;
#123 = DIRECTION ( 'NONE',  ( -0.000000000000000000, -0.000000000000000000, -1.000000000000000000 ) ) ;
#124 = CARTESIAN_POINT ( 'NONE',  ( 7.000000000000000888, 8.572527594031474176E-16, 7.000000000000000000 ) ) ;
#125 = ADVANCED_FACE ( 'NONE', ( #196 ), #66, .F. ) ;
#126 = FACE_BOUND ( 'NONE', #18, .T. ) ;
#127 = DATE_AND_TIME ( #56, #172 ) ;
#128 = DIRECTION ( 'NONE',  ( 0.000000000000000000, 0.000000000000000000, 1.000000000000000000 ) ) ;
#129 = CALENDAR_DATE ( 2023, 12, 2 ) ;
#130 = PLANE ( 'NONE',  #151 ) ;
#131 = COORDINATED_UNIVERSAL_TIME_OFFSET ( 1, 0, .AHEAD. ) ;
#132 = LOCAL_TIME ( 11, 53, 16.00000000000000000, #252 ) ;
#133 = ORIENTED_EDGE ( 'NONE', *, *, #205, .F. ) ;
#134 = APPROVAL_DATE_TIME ( #166, #4 ) ;
#135 = EDGE_LOOP ( 'NONE', ( #112, #16 ) ) ;
#136 = VERTEX_POINT ( 'NONE', #197 ) ;
#137 = CC_DESIGN_PERSON_AND_ORGANIZATION_ASSIGNMENT ( #203, #206, ( #220 ) ) ;
#138 = LINE ( 'NONE', #27, #87 ) ;
#139 = ORIENTED_EDGE ( 'NONE', *, *, #68, .T. ) ;
#140 = CARTESIAN_POINT ( 'NONE',  ( 0.000000000000000000, 0.000000000000000000, 0.000000000000000000 ) ) ;
#141 = PRODUCT_DEFINITION_SHAPE ( 'NONE', 'NONE',  #220 ) ;
#142 = ORIENTED_EDGE ( 'NONE', *, *, #145, .T. ) ;
#143 = CARTESIAN_POINT ( 'NONE',  ( 0.000000000000000000, 0.000000000000000000, 0.000000000000000000 ) ) ;
#144 = AXIS2_PLACEMENT_3D ( 'NONE', #143, #28, #31 ) ;
#145 = EDGE_CURVE ( 'NONE', #192, #168, #188, .T. ) ;
#146 = DIRECTION ( 'NONE',  ( 1.000000000000000000, 0.000000000000000000, 0.000000000000000000 ) ) ;
#147 = CARTESIAN_POINT ( 'NONE',  ( -11.00000000000000000, 0.000000000000000000, 7.000000000000000000 ) ) ;
#148 = PERSON_AND_ORGANIZATION ( #37, #93 ) ;
#149 = ORIENTED_EDGE ( 'NONE', *, *, #199, .F. ) ;
#150 = AXIS2_PLACEMENT_3D ( 'NONE', #50, #159, #71 ) ;
#151 = AXIS2_PLACEMENT_3D ( 'NONE', #179, #226, #85 ) ;
#152 = ORIENTED_EDGE ( 'NONE', *, *, #241, .F. ) ;
#153 = ADVANCED_FACE ( 'NONE', ( #126, #228 ), #130, .T. ) ;
#154 = DIRECTION ( 'NONE',  ( 0.000000000000000000, 0.000000000000000000, 1.000000000000000000 ) ) ;
#155 = DIRECTION ( 'NONE',  ( -1.000000000000000000, 0.000000000000000000, 0.000000000000000000 ) ) ;
#156 = PLANE ( 'NONE',  #35 ) ;
#157 = EDGE_CURVE ( 'NONE', #245, #210, #43, .T. ) ;
#158 =( NAMED_UNIT ( * ) SI_UNIT ( $, .STERADIAN. ) SOLID_ANGLE_UNIT ( ) );
#159 = DIRECTION ( 'NONE',  ( -0.000000000000000000, -0.000000000000000000, -1.000000000000000000 ) ) ;
#160 = EDGE_CURVE ( 'NONE', #168, #192, #225, .T. ) ;
#161 = CALENDAR_DATE ( 2023, 12, 2 ) ;
#162 = DIRECTION ( 'NONE',  ( 1.000000000000000000, 0.000000000000000000, 0.000000000000000000 ) ) ;
#163 = FACE_OUTER_BOUND ( 'NONE', #6, .T. ) ;
#164 = DATE_AND_TIME ( #211, #223 ) ;
#165 = EDGE_LOOP ( 'NONE', ( #81, #214, #118, #114 ) ) ;
#166 = DATE_AND_TIME ( #79, #218 ) ;
#167 = ADVANCED_FACE ( 'NONE', ( #231 ), #200, .T. ) ;
#168 = VERTEX_POINT ( 'NONE', #70 ) ;
#169 = ORIENTED_EDGE ( 'NONE', *, *, #34, .F. ) ;
#170 = PERSON_AND_ORGANIZATION ( #37, #93 ) ;
#171 = CARTESIAN_POINT ( 'NONE',  ( 0.000000000000000000, 0.000000000000000000, 7.000000000000000000 ) ) ;
#172 = LOCAL_TIME ( 11, 53, 16.00000000000000000, #106 ) ;
#173 = EDGE_LOOP ( 'NONE', ( #133, #44, #139, #142 ) ) ;
#174 = ORIENTED_EDGE ( 'NONE', *, *, #160, .F. ) ;
#175 = ADVANCED_FACE ( 'NONE', ( #177 ), #176, .T. ) ;
#176 = CYLINDRICAL_SURFACE ( 'NONE', #150, 11.00000000000000000 ) ;
#177 = FACE_OUTER_BOUND ( 'NONE', #165, .T. ) ;
#178 = DATE_AND_TIME ( #129, #89 ) ;
#179 = CARTESIAN_POINT ( 'NONE',  ( 0.000000000000000000, 0.000000000000000000, 7.000000000000000000 ) ) ;
#180 = LINE ( 'NONE', #202, #40 ) ;
#181 = SECURITY_CLASSIFICATION ( '', '', #237 ) ;
#182 = PERSON_AND_ORGANIZATION ( #37, #93 ) ;
#183 = UNCERTAINTY_MEASURE_WITH_UNIT (LENGTH_MEASURE( 1.000000000000000082E-05 ), #15, 'distance_accuracy_value', 'NONE');
#184 = CC_DESIGN_PERSON_AND_ORGANIZATION_ASSIGNMENT ( #95, #215, ( #181 ) ) ;
#185 = APPROVAL_ROLE ( '' ) ;
#186 = AXIS2_PLACEMENT_3D ( 'NONE', #11, #229, #146 ) ;
#187 = VERTEX_POINT ( 'NONE', #73 ) ;
#188 = CIRCLE ( 'NONE', #232, 11.00000000000000000 ) ;
#189 = APPLICATION_PROTOCOL_DEFINITION ( 'international standard', 'config_control_design', 1994, #111 ) ;
#190 = LINE ( 'NONE', #9, #195 ) ;
#191 = DIRECTION ( 'NONE',  ( -0.000000000000000000, -0.000000000000000000, -1.000000000000000000 ) ) ;
#192 = VERTEX_POINT ( 'NONE', #48 ) ;
#193 = CIRCLE ( 'NONE', #8, 7.000000000000000888 ) ;
#194 = DESIGN_CONTEXT ( 'detailed design', #76, 'design' ) ;
#195 = VECTOR ( 'NONE', #100, 1000.000000000000000 ) ;
#196 = FACE_OUTER_BOUND ( 'NONE', #198, .T. ) ;
#197 = CARTESIAN_POINT ( 'NONE',  ( -7.000000000000000888, 0.000000000000000000, 160.0000000000000000 ) ) ;
#198 = EDGE_LOOP ( 'NONE', ( #23, #174 ) ) ;
#199 = EDGE_CURVE ( 'NONE', #3, #234, #62, .T. ) ;
#200 = CYLINDRICAL_SURFACE ( 'NONE', #77, 7.000000000000000888 ) ;
#201 = MANIFOLD_SOLID_BREP ( 'Pøidat vysunutím3', #58 ) ;
#202 = CARTESIAN_POINT ( 'NONE',  ( 11.00000000000000000, 1.347111479062088405E-15, 7.000000000000000000 ) ) ;
#203 = PERSON_AND_ORGANIZATION ( #37, #93 ) ;
#204 = DIRECTION ( 'NONE',  ( 1.000000000000000000, 0.000000000000000000, 0.000000000000000000 ) ) ;
#205 = EDGE_CURVE ( 'NONE', #210, #168, #180, .T. ) ;
#206 = PERSON_AND_ORGANIZATION_ROLE ( 'creator' ) ;
#207 = CARTESIAN_POINT ( 'NONE',  ( 0.000000000000000000, 0.000000000000000000, 7.000000000000000000 ) ) ;
#208 = AXIS2_PLACEMENT_3D ( 'NONE', #224, #29, #88 ) ;
#209 = DATE_AND_TIME ( #161, #132 ) ;
#210 = VERTEX_POINT ( 'NONE', #104 ) ;
#211 = CALENDAR_DATE ( 2023, 12, 2 ) ;
#212 = VECTOR ( 'NONE', #120, 1000.000000000000000 ) ;
#213 = AXIS2_PLACEMENT_3D ( 'NONE', #207, #255, #14 ) ;
#214 = ORIENTED_EDGE ( 'NONE', *, *, #205, .T. ) ;
#215 = PERSON_AND_ORGANIZATION_ROLE ( 'classification_officer' ) ;
#216 = AXIS2_PLACEMENT_3D ( 'NONE', #98, #82, #155 ) ;
#217 = DIRECTION ( 'NONE',  ( 1.000000000000000000, 0.000000000000000000, 0.000000000000000000 ) ) ;
#218 = LOCAL_TIME ( 11, 53, 16.00000000000000000, #17 ) ;
#219 = ORIENTED_EDGE ( 'NONE', *, *, #34, .T. ) ;
#220 = PRODUCT_DEFINITION ( 'NEZNÁMÝ', '', #99, #194 ) ;
#221 = EDGE_LOOP ( 'NONE', ( #80, #60, #92, #169 ) ) ;
#222 = DIRECTION ( 'NONE',  ( 0.000000000000000000, 0.000000000000000000, 1.000000000000000000 ) ) ;
#223 = LOCAL_TIME ( 11, 53, 16.00000000000000000, #236 ) ;
#224 = CARTESIAN_POINT ( 'NONE',  ( 0.000000000000000000, 0.000000000000000000, 160.0000000000000000 ) ) ;
#225 = CIRCLE ( 'NONE', #144, 11.00000000000000000 ) ;
#226 = DIRECTION ( 'NONE',  ( 0.000000000000000000, 0.000000000000000000, 1.000000000000000000 ) ) ;
#227 = CIRCLE ( 'NONE', #110, 7.000000000000000888 ) ;
#228 = FACE_OUTER_BOUND ( 'NONE', #135, .T. ) ;
#229 = DIRECTION ( 'NONE',  ( 0.000000000000000000, 0.000000000000000000, 1.000000000000000000 ) ) ;
#230 = APPROVAL_ROLE ( '' ) ;
#231 = FACE_OUTER_BOUND ( 'NONE', #221, .T. ) ;
#232 = AXIS2_PLACEMENT_3D ( 'NONE', #101, #84, #162 ) ;
#233 = APPROVAL_STATUS ( 'not_yet_approved' ) ;
#234 = VERTEX_POINT ( 'NONE', #124 ) ;
#235 = ADVANCED_FACE ( 'NONE', ( #163 ), #103, .T. ) ;
#236 = COORDINATED_UNIVERSAL_TIME_OFFSET ( 1, 0, .AHEAD. ) ;
#237 = SECURITY_CLASSIFICATION_LEVEL ( 'unclassified' ) ;
#238 = AXIS2_PLACEMENT_3D ( 'NONE', #96, #38, #61 ) ;
#239 = ORIENTED_EDGE ( 'NONE', *, *, #199, .T. ) ;
#240 = DIRECTION ( 'NONE',  ( 0.000000000000000000, 0.000000000000000000, 1.000000000000000000 ) ) ;
#241 = EDGE_CURVE ( 'NONE', #234, #3, #49, .T. ) ;
#242 = CC_DESIGN_SECURITY_CLASSIFICATION ( #181, ( #99 ) ) ;
#243 = CYLINDRICAL_SURFACE ( 'NONE', #216, 11.00000000000000000 ) ;
#244 = ADVANCED_BREP_SHAPE_REPRESENTATION ( '7bef', ( #201, #238 ), #59 ) ;
#245 = VERTEX_POINT ( 'NONE', #147 ) ;
#246 = CC_DESIGN_APPROVAL ( #10, ( #220 ) ) ;
#247 = DIRECTION ( 'NONE',  ( -0.000000000000000000, -0.000000000000000000, -1.000000000000000000 ) ) ;
#248 = DIRECTION ( 'NONE',  ( 0.000000000000000000, 0.000000000000000000, 1.000000000000000000 ) ) ;
#249 = PERSON_AND_ORGANIZATION ( #37, #93 ) ;
#250 = AXIS2_PLACEMENT_3D ( 'NONE', #171, #41, #217 ) ;
#251 = CARTESIAN_POINT ( 'NONE',  ( 0.000000000000000000, 0.000000000000000000, 7.000000000000000000 ) ) ;
#252 = COORDINATED_UNIVERSAL_TIME_OFFSET ( 1, 0, .AHEAD. ) ;
#253 = EDGE_CURVE ( 'NONE', #136, #187, #227, .T. ) ;
#254 = APPROVAL_PERSON_ORGANIZATION ( #148, #7, #230 ) ;
#255 = DIRECTION ( 'NONE',  ( 0.000000000000000000, 0.000000000000000000, 1.000000000000000000 ) ) ;
ENDSEC;
END-ISO-10303-21;
