ISO-10303-21;
HEADER;
FILE_DESCRIPTION (( 'STEP AP203' ),
    '1' );
FILE_NAME ('cfcc.STEP',
    '2023-02-12T10:42:31',
    ( '' ),
    ( '' ),
    'SwSTEP 2.0',
    'SolidWorks 2019',
    '' );
FILE_SCHEMA (( 'CONFIG_CONTROL_DESIGN' ));
ENDSEC;

DATA;
#1 = ORIENTED_EDGE ( 'NONE', *, *, #141, .T. ) ;
#2 = PRODUCT_DEFINITION_SHAPE ( 'NONE', 'NONE',  #4 ) ;
#3 =( NAMED_UNIT ( * ) SI_UNIT ( $, .STERADIAN. ) SOLID_ANGLE_UNIT ( ) );
#4 = PRODUCT_DEFINITION ( 'NEZNÁMÝ', '', #139, #104 ) ;
#5 = CARTESIAN_POINT ( 'NONE',  ( -8.000000000000000000, 0.000000000000000000, 1000.000000000000000 ) ) ;
#6 = CARTESIAN_POINT ( 'NONE',  ( 0.000000000000000000, 0.000000000000000000, 7.000000000000000000 ) ) ;
#7 = ADVANCED_FACE ( 'NONE', ( #219 ), #198, .T. ) ;
#8 = ORIENTED_EDGE ( 'NONE', *, *, #177, .T. ) ;
#9 = AXIS2_PLACEMENT_3D ( 'NONE', #184, #207, #24 ) ;
#10 = DATE_AND_TIME ( #212, #133 ) ;
#11 = EDGE_LOOP ( 'NONE', ( #249, #172, #179, #8 ) ) ;
#12 = APPROVAL_ROLE ( '' ) ;
#13 = SECURITY_CLASSIFICATION_LEVEL ( 'unclassified' ) ;
#14 = DIRECTION ( 'NONE',  ( -0.000000000000000000, -0.000000000000000000, -1.000000000000000000 ) ) ;
#15 = VERTEX_POINT ( 'NONE', #21 ) ;
#16 = APPLICATION_CONTEXT ( 'configuration controlled 3d designs of mechanical parts and assemblies' ) ;
#17 = CC_DESIGN_PERSON_AND_ORGANIZATION_ASSIGNMENT ( #110, #186, ( #139 ) ) ;
#18 = DIRECTION ( 'NONE',  ( 1.000000000000000000, 0.000000000000000000, 0.000000000000000000 ) ) ;
#19 = DIRECTION ( 'NONE',  ( 0.000000000000000000, 0.000000000000000000, 1.000000000000000000 ) ) ;
#20 = CARTESIAN_POINT ( 'NONE',  ( -11.00000000000000000, 0.000000000000000000, 0.000000000000000000 ) ) ;
#21 = CARTESIAN_POINT ( 'NONE',  ( 11.00000000000000000, 1.347111479062088405E-15, 0.000000000000000000 ) ) ;
#22 = ORIENTED_EDGE ( 'NONE', *, *, #146, .F. ) ;
#23 = PRODUCT ( 'cfcc', 'cfcc', '', ( #205 ) ) ;
#24 = DIRECTION ( 'NONE',  ( 1.000000000000000000, 0.000000000000000000, 0.000000000000000000 ) ) ;
#25 = AXIS2_PLACEMENT_3D ( 'NONE', #217, #178, #238 ) ;
#26 = EDGE_CURVE ( 'NONE', #15, #55, #181, .T. ) ;
#27 = CYLINDRICAL_SURFACE ( 'NONE', #195, 11.00000000000000000 ) ;
#28 = CARTESIAN_POINT ( 'NONE',  ( 11.00000000000000000, 1.347111479062088405E-15, 7.000000000000000000 ) ) ;
#29 = LOCAL_TIME ( 11, 42, 31.00000000000000000, #187 ) ;
#30 = DIRECTION ( 'NONE',  ( 1.000000000000000000, 0.000000000000000000, -0.000000000000000000 ) ) ;
#31 = PERSON_AND_ORGANIZATION ( #253, #214 ) ;
#32 = PERSON_AND_ORGANIZATION_ROLE ( 'classification_officer' ) ;
#33 = ORIENTED_EDGE ( 'NONE', *, *, #199, .F. ) ;
#34 = CIRCLE ( 'NONE', #102, 11.00000000000000000 ) ;
#35 = PERSON_AND_ORGANIZATION ( #253, #214 ) ;
#36 = VERTEX_POINT ( 'NONE', #158 ) ;
#37 = APPROVAL_STATUS ( 'not_yet_approved' ) ;
#38 = ADVANCED_BREP_SHAPE_REPRESENTATION ( 'cfcc', ( #136, #72 ), #58 ) ;
#39 = APPROVAL ( #84, 'NEURÈENÝ' ) ;
#40 = ORIENTED_EDGE ( 'NONE', *, *, #199, .T. ) ;
#41 = VERTEX_POINT ( 'NONE', #62 ) ;
#42 = ORIENTED_EDGE ( 'NONE', *, *, #88, .T. ) ;
#43 = APPLICATION_CONTEXT ( 'configuration controlled 3d designs of mechanical parts and assemblies' ) ;
#44 = ADVANCED_FACE ( 'NONE', ( #99 ), #118, .T. ) ;
#45 = DIRECTION ( 'NONE',  ( 0.000000000000000000, 0.000000000000000000, 1.000000000000000000 ) ) ;
#46 = AXIS2_PLACEMENT_3D ( 'NONE', #51, #224, #30 ) ;
#47 = DIRECTION ( 'NONE',  ( 1.000000000000000000, 0.000000000000000000, 0.000000000000000000 ) ) ;
#48 = CC_DESIGN_APPROVAL ( #39, ( #4 ) ) ;
#49 = CARTESIAN_POINT ( 'NONE',  ( 11.00000000000000000, 1.347111479062088405E-15, 7.000000000000000000 ) ) ;
#50 = FACE_OUTER_BOUND ( 'NONE', #197, .T. ) ;
#51 = CARTESIAN_POINT ( 'NONE',  ( 0.000000000000000000, 0.000000000000000000, 0.000000000000000000 ) ) ;
#52 = APPLICATION_PROTOCOL_DEFINITION ( 'international standard', 'config_control_design', 1994, #16 ) ;
#53 = LOCAL_TIME ( 11, 42, 31.00000000000000000, #95 ) ;
#54 = ORIENTED_EDGE ( 'NONE', *, *, #206, .T. ) ;
#55 = VERTEX_POINT ( 'NONE', #20 ) ;
#56 = EDGE_CURVE ( 'NONE', #155, #41, #163, .T. ) ;
#57 = CIRCLE ( 'NONE', #147, 8.000000000000000000 ) ;
#58 =( GEOMETRIC_REPRESENTATION_CONTEXT ( 3 ) GLOBAL_UNCERTAINTY_ASSIGNED_CONTEXT ( ( #63 ) ) GLOBAL_UNIT_ASSIGNED_CONTEXT ( ( #87, #126, #3 ) ) REPRESENTATION_CONTEXT ( 'NONE', 'WORKASPACE' ) );
#59 = APPROVAL_DATE_TIME ( #10, #71 ) ;
#60 = ADVANCED_FACE ( 'NONE', ( #173 ), #254, .T. ) ;
#61 = LINE ( 'NONE', #218, #123 ) ;
#62 = CARTESIAN_POINT ( 'NONE',  ( -11.00000000000000000, 0.000000000000000000, 7.000000000000000000 ) ) ;
#63 = UNCERTAINTY_MEASURE_WITH_UNIT (LENGTH_MEASURE( 1.000000000000000082E-05 ), #87, 'distance_accuracy_value', 'NONE');
#64 = CARTESIAN_POINT ( 'NONE',  ( 0.000000000000000000, 0.000000000000000000, 1000.000000000000000 ) ) ;
#65 = DIRECTION ( 'NONE',  ( 0.000000000000000000, 0.000000000000000000, 1.000000000000000000 ) ) ;
#66 = CARTESIAN_POINT ( 'NONE',  ( 0.000000000000000000, 0.000000000000000000, 7.000000000000000000 ) ) ;
#67 = CC_DESIGN_PERSON_AND_ORGANIZATION_ASSIGNMENT ( #170, #32, ( #247 ) ) ;
#68 = DIRECTION ( 'NONE',  ( -0.000000000000000000, -0.000000000000000000, -1.000000000000000000 ) ) ;
#69 = APPLICATION_PROTOCOL_DEFINITION ( 'international standard', 'config_control_design', 1994, #43 ) ;
#70 = LINE ( 'NONE', #161, #75 ) ;
#71 = APPROVAL ( #37, 'NEURÈENÝ' ) ;
#72 = AXIS2_PLACEMENT_3D ( 'NONE', #90, #243, #145 ) ;
#73 = ADVANCED_FACE ( 'NONE', ( #235, #176 ), #80, .T. ) ;
#74 = DATE_TIME_ROLE ( 'classification_date' ) ;
#75 = VECTOR ( 'NONE', #68, 1000.000000000000000 ) ;
#76 = CIRCLE ( 'NONE', #185, 11.00000000000000000 ) ;
#77 = CARTESIAN_POINT ( 'NONE',  ( 0.000000000000000000, 0.000000000000000000, 1000.000000000000000 ) ) ;
#78 = LOCAL_TIME ( 11, 42, 31.00000000000000000, #160 ) ;
#79 = CARTESIAN_POINT ( 'NONE',  ( -8.000000000000000000, 0.000000000000000000, 1000.000000000000000 ) ) ;
#80 = PLANE ( 'NONE',  #240 ) ;
#81 = ADVANCED_FACE ( 'NONE', ( #225 ), #83, .F. ) ;
#82 = CLOSED_SHELL ( 'NONE', ( #60, #7, #165, #73, #81, #154, #44 ) ) ;
#83 = PLANE ( 'NONE',  #46 ) ;
#84 = APPROVAL_STATUS ( 'not_yet_approved' ) ;
#85 = CC_DESIGN_APPROVAL ( #71, ( #139 ) ) ;
#86 = DIRECTION ( 'NONE',  ( 1.000000000000000000, 0.000000000000000000, 0.000000000000000000 ) ) ;
#87 =( LENGTH_UNIT ( ) NAMED_UNIT ( * ) SI_UNIT ( .MILLI., .METRE. ) );
#88 = EDGE_CURVE ( 'NONE', #155, #15, #144, .T. ) ;
#89 = AXIS2_PLACEMENT_3D ( 'NONE', #6, #127, #47 ) ;
#90 = CARTESIAN_POINT ( 'NONE',  ( 0.000000000000000000, 0.000000000000000000, 0.000000000000000000 ) ) ;
#91 = APPROVAL_ROLE ( '' ) ;
#92 = EDGE_CURVE ( 'NONE', #167, #36, #57, .T. ) ;
#93 = APPROVAL_STATUS ( 'not_yet_approved' ) ;
#94 = DIRECTION ( 'NONE',  ( 0.000000000000000000, 0.000000000000000000, 1.000000000000000000 ) ) ;
#95 = COORDINATED_UNIVERSAL_TIME_OFFSET ( 1, 0, .AHEAD. ) ;
#96 = DATE_TIME_ROLE ( 'creation_date' ) ;
#97 = AXIS2_PLACEMENT_3D ( 'NONE', #138, #65, #18 ) ;
#98 = EDGE_LOOP ( 'NONE', ( #152, #42, #239, #114 ) ) ;
#99 = FACE_OUTER_BOUND ( 'NONE', #216, .T. ) ;
#100 = CARTESIAN_POINT ( 'NONE',  ( -8.000000000000000000, 0.000000000000000000, 7.000000000000000000 ) ) ;
#101 = DIRECTION ( 'NONE',  ( -0.000000000000000000, -0.000000000000000000, -1.000000000000000000 ) ) ;
#102 = AXIS2_PLACEMENT_3D ( 'NONE', #148, #162, #241 ) ;
#103 = FACE_OUTER_BOUND ( 'NONE', #11, .T. ) ;
#104 = DESIGN_CONTEXT ( 'detailed design', #16, 'design' ) ;
#105 = CARTESIAN_POINT ( 'NONE',  ( 0.000000000000000000, 0.000000000000000000, 0.000000000000000000 ) ) ;
#106 = DIRECTION ( 'NONE',  ( -1.000000000000000000, 0.000000000000000000, 0.000000000000000000 ) ) ;
#107 = CC_DESIGN_APPROVAL ( #234, ( #247 ) ) ;
#108 = DIRECTION ( 'NONE',  ( 1.000000000000000000, 0.000000000000000000, -0.000000000000000000 ) ) ;
#109 = CC_DESIGN_PERSON_AND_ORGANIZATION_ASSIGNMENT ( #116, #209, ( #139 ) ) ;
#110 = PERSON_AND_ORGANIZATION ( #253, #214 ) ;
#111 = VERTEX_POINT ( 'NONE', #100 ) ;
#112 = VECTOR ( 'NONE', #220, 1000.000000000000000 ) ;
#113 = APPROVAL_DATE_TIME ( #248, #39 ) ;
#114 = ORIENTED_EDGE ( 'NONE', *, *, #141, .F. ) ;
#115 = CC_DESIGN_DATE_AND_TIME_ASSIGNMENT ( #231, #96, ( #4 ) ) ;
#116 = PERSON_AND_ORGANIZATION ( #253, #214 ) ;
#117 = ORIENTED_EDGE ( 'NONE', *, *, #88, .F. ) ;
#118 = PLANE ( 'NONE',  #125 ) ;
#119 = CC_DESIGN_PERSON_AND_ORGANIZATION_ASSIGNMENT ( #244, #226, ( #23 ) ) ;
#120 = DIRECTION ( 'NONE',  ( 1.000000000000000000, 0.000000000000000000, 0.000000000000000000 ) ) ;
#121 = DIRECTION ( 'NONE',  ( -0.000000000000000000, -0.000000000000000000, -1.000000000000000000 ) ) ;
#122 = ORIENTED_EDGE ( 'NONE', *, *, #159, .T. ) ;
#123 = VECTOR ( 'NONE', #14, 1000.000000000000000 ) ;
#124 = DIRECTION ( 'NONE',  ( -1.000000000000000000, 0.000000000000000000, 0.000000000000000000 ) ) ;
#125 = AXIS2_PLACEMENT_3D ( 'NONE', #64, #213, #174 ) ;
#126 =( NAMED_UNIT ( * ) PLANE_ANGLE_UNIT ( ) SI_UNIT ( $, .RADIAN. ) );
#127 = DIRECTION ( 'NONE',  ( 0.000000000000000000, 0.000000000000000000, 1.000000000000000000 ) ) ;
#128 = APPROVAL_PERSON_ORGANIZATION ( #31, #39, #180 ) ;
#129 = EDGE_LOOP ( 'NONE', ( #188, #54, #140, #255 ) ) ;
#130 = ORIENTED_EDGE ( 'NONE', *, *, #177, .F. ) ;
#131 = CALENDAR_DATE ( 2023, 12, 2 ) ;
#132 = AXIS2_PLACEMENT_3D ( 'NONE', #171, #94, #151 ) ;
#133 = LOCAL_TIME ( 11, 42, 31.00000000000000000, #137 ) ;
#134 = EDGE_CURVE ( 'NONE', #167, #111, #156, .T. ) ;
#135 = DATE_AND_TIME ( #250, #191 ) ;
#136 = MANIFOLD_SOLID_BREP ( 'Pøidat vysunutím3', #82 ) ;
#137 = COORDINATED_UNIVERSAL_TIME_OFFSET ( 1, 0, .AHEAD. ) ;
#138 = CARTESIAN_POINT ( 'NONE',  ( 0.000000000000000000, 0.000000000000000000, 7.000000000000000000 ) ) ;
#139 = PRODUCT_DEFINITION_FORMATION_WITH_SPECIFIED_SOURCE ( 'LIBOVOLNÝ', '', #23, .NOT_KNOWN. ) ;
#140 = ORIENTED_EDGE ( 'NONE', *, *, #146, .T. ) ;
#141 = EDGE_CURVE ( 'NONE', #41, #55, #61, .T. ) ;
#142 = DIRECTION ( 'NONE',  ( -0.000000000000000000, -0.000000000000000000, -1.000000000000000000 ) ) ;
#143 = ORIENTED_EDGE ( 'NONE', *, *, #56, .T. ) ;
#144 = LINE ( 'NONE', #49, #112 ) ;
#145 = DIRECTION ( 'NONE',  ( 1.000000000000000000, 0.000000000000000000, 0.000000000000000000 ) ) ;
#146 = EDGE_CURVE ( 'NONE', #150, #111, #210, .T. ) ;
#147 = AXIS2_PLACEMENT_3D ( 'NONE', #196, #19, #120 ) ;
#148 = CARTESIAN_POINT ( 'NONE',  ( 0.000000000000000000, 0.000000000000000000, 0.000000000000000000 ) ) ;
#149 = CARTESIAN_POINT ( 'NONE',  ( 0.000000000000000000, 0.000000000000000000, 7.000000000000000000 ) ) ;
#150 = VERTEX_POINT ( 'NONE', #228 ) ;
#151 = DIRECTION ( 'NONE',  ( 1.000000000000000000, 0.000000000000000000, 0.000000000000000000 ) ) ;
#152 = ORIENTED_EDGE ( 'NONE', *, *, #56, .F. ) ;
#153 = CIRCLE ( 'NONE', #89, 8.000000000000000000 ) ;
#154 = ADVANCED_FACE ( 'NONE', ( #103 ), #236, .T. ) ;
#155 = VERTEX_POINT ( 'NONE', #28 ) ;
#156 = LINE ( 'NONE', #79, #175 ) ;
#157 = CARTESIAN_POINT ( 'NONE',  ( 0.000000000000000000, 0.000000000000000000, 7.000000000000000000 ) ) ;
#158 = CARTESIAN_POINT ( 'NONE',  ( 8.000000000000000000, 9.797174393178825657E-16, 1000.000000000000000 ) ) ;
#159 = EDGE_CURVE ( 'NONE', #36, #167, #242, .T. ) ;
#160 = COORDINATED_UNIVERSAL_TIME_OFFSET ( 1, 0, .AHEAD. ) ;
#161 = CARTESIAN_POINT ( 'NONE',  ( 8.000000000000000000, 9.797174393178825657E-16, 1000.000000000000000 ) ) ;
#162 = DIRECTION ( 'NONE',  ( 0.000000000000000000, 0.000000000000000000, 1.000000000000000000 ) ) ;
#163 = CIRCLE ( 'NONE', #97, 11.00000000000000000 ) ;
#164 = APPROVAL_PERSON_ORGANIZATION ( #245, #234, #91 ) ;
#165 = ADVANCED_FACE ( 'NONE', ( #50 ), #27, .T. ) ;
#166 = DATE_AND_TIME ( #169, #53 ) ;
#167 = VERTEX_POINT ( 'NONE', #5 ) ;
#168 = APPROVAL_PERSON_ORGANIZATION ( #35, #71, #12 ) ;
#169 = CALENDAR_DATE ( 2023, 12, 2 ) ;
#170 = PERSON_AND_ORGANIZATION ( #253, #214 ) ;
#171 = CARTESIAN_POINT ( 'NONE',  ( 0.000000000000000000, 0.000000000000000000, 7.000000000000000000 ) ) ;
#172 = ORIENTED_EDGE ( 'NONE', *, *, #92, .F. ) ;
#173 = FACE_OUTER_BOUND ( 'NONE', #129, .T. ) ;
#174 = DIRECTION ( 'NONE',  ( 1.000000000000000000, 0.000000000000000000, -0.000000000000000000 ) ) ;
#175 = VECTOR ( 'NONE', #142, 1000.000000000000000 ) ;
#176 = FACE_OUTER_BOUND ( 'NONE', #201, .T. ) ;
#177 = EDGE_CURVE ( 'NONE', #111, #150, #153, .T. ) ;
#178 = DIRECTION ( 'NONE',  ( -0.000000000000000000, -0.000000000000000000, -1.000000000000000000 ) ) ;
#179 = ORIENTED_EDGE ( 'NONE', *, *, #134, .T. ) ;
#180 = APPROVAL_ROLE ( '' ) ;
#181 = CIRCLE ( 'NONE', #233, 11.00000000000000000 ) ;
#182 = CARTESIAN_POINT ( 'NONE',  ( 0.000000000000000000, 0.000000000000000000, 7.000000000000000000 ) ) ;
#183 = DIRECTION ( 'NONE',  ( -0.000000000000000000, -0.000000000000000000, -1.000000000000000000 ) ) ;
#184 = CARTESIAN_POINT ( 'NONE',  ( 0.000000000000000000, 0.000000000000000000, 1000.000000000000000 ) ) ;
#185 = AXIS2_PLACEMENT_3D ( 'NONE', #182, #221, #86 ) ;
#186 = PERSON_AND_ORGANIZATION_ROLE ( 'design_supplier' ) ;
#187 = COORDINATED_UNIVERSAL_TIME_OFFSET ( 1, 0, .AHEAD. ) ;
#188 = ORIENTED_EDGE ( 'NONE', *, *, #159, .F. ) ;
#189 = PRODUCT_RELATED_PRODUCT_CATEGORY ( 'detail', '', ( #23 ) ) ;
#190 = ORIENTED_EDGE ( 'NONE', *, *, #26, .F. ) ;
#191 = LOCAL_TIME ( 11, 42, 31.00000000000000000, #230 ) ;
#192 = PERSON_AND_ORGANIZATION_ROLE ( 'creator' ) ;
#193 = SHAPE_DEFINITION_REPRESENTATION ( #2, #38 ) ;
#194 = EDGE_LOOP ( 'NONE', ( #33, #190 ) ) ;
#195 = AXIS2_PLACEMENT_3D ( 'NONE', #149, #183, #106 ) ;
#196 = CARTESIAN_POINT ( 'NONE',  ( 0.000000000000000000, 0.000000000000000000, 1000.000000000000000 ) ) ;
#197 = EDGE_LOOP ( 'NONE', ( #117, #202, #1, #40 ) ) ;
#198 = CYLINDRICAL_SURFACE ( 'NONE', #246, 11.00000000000000000 ) ;
#199 = EDGE_CURVE ( 'NONE', #55, #15, #34, .T. ) ;
#200 = DIRECTION ( 'NONE',  ( 1.000000000000000000, 0.000000000000000000, 0.000000000000000000 ) ) ;
#201 = EDGE_LOOP ( 'NONE', ( #227, #143 ) ) ;
#202 = ORIENTED_EDGE ( 'NONE', *, *, #251, .F. ) ;
#203 = CC_DESIGN_PERSON_AND_ORGANIZATION_ASSIGNMENT ( #252, #192, ( #4 ) ) ;
#204 = CALENDAR_DATE ( 2023, 12, 2 ) ;
#205 = MECHANICAL_CONTEXT ( 'NONE', #43, 'mechanical' ) ;
#206 = EDGE_CURVE ( 'NONE', #36, #150, #70, .T. ) ;
#207 = DIRECTION ( 'NONE',  ( 0.000000000000000000, 0.000000000000000000, 1.000000000000000000 ) ) ;
#208 = ORIENTED_EDGE ( 'NONE', *, *, #92, .T. ) ;
#209 = PERSON_AND_ORGANIZATION_ROLE ( 'creator' ) ;
#210 = CIRCLE ( 'NONE', #132, 8.000000000000000000 ) ;
#211 = APPROVAL_DATE_TIME ( #166, #234 ) ;
#212 = CALENDAR_DATE ( 2023, 12, 2 ) ;
#213 = DIRECTION ( 'NONE',  ( 0.000000000000000000, 0.000000000000000000, 1.000000000000000000 ) ) ;
#214 = ORGANIZATION ( 'NEURÈENÝ', 'NEURÈENÝ', '' ) ;
#215 = CC_DESIGN_DATE_AND_TIME_ASSIGNMENT ( #135, #74, ( #247 ) ) ;
#216 = EDGE_LOOP ( 'NONE', ( #208, #122 ) ) ;
#217 = CARTESIAN_POINT ( 'NONE',  ( 0.000000000000000000, 0.000000000000000000, 1000.000000000000000 ) ) ;
#218 = CARTESIAN_POINT ( 'NONE',  ( -11.00000000000000000, 0.000000000000000000, 7.000000000000000000 ) ) ;
#219 = FACE_OUTER_BOUND ( 'NONE', #98, .T. ) ;
#220 = DIRECTION ( 'NONE',  ( -0.000000000000000000, -0.000000000000000000, -1.000000000000000000 ) ) ;
#221 = DIRECTION ( 'NONE',  ( 0.000000000000000000, 0.000000000000000000, 1.000000000000000000 ) ) ;
#222 = AXIS2_PLACEMENT_3D ( 'NONE', #77, #101, #237 ) ;
#223 = CC_DESIGN_SECURITY_CLASSIFICATION ( #247, ( #139 ) ) ;
#224 = DIRECTION ( 'NONE',  ( 0.000000000000000000, 0.000000000000000000, 1.000000000000000000 ) ) ;
#225 = FACE_OUTER_BOUND ( 'NONE', #194, .T. ) ;
#226 = PERSON_AND_ORGANIZATION_ROLE ( 'design_owner' ) ;
#227 = ORIENTED_EDGE ( 'NONE', *, *, #251, .T. ) ;
#228 = CARTESIAN_POINT ( 'NONE',  ( 8.000000000000000000, 9.797174393178825657E-16, 7.000000000000000000 ) ) ;
#229 = EDGE_LOOP ( 'NONE', ( #130, #22 ) ) ;
#230 = COORDINATED_UNIVERSAL_TIME_OFFSET ( 1, 0, .AHEAD. ) ;
#231 = DATE_AND_TIME ( #131, #29 ) ;
#232 = DIRECTION ( 'NONE',  ( 0.000000000000000000, 0.000000000000000000, 1.000000000000000000 ) ) ;
#233 = AXIS2_PLACEMENT_3D ( 'NONE', #105, #232, #200 ) ;
#234 = APPROVAL ( #93, 'NEURÈENÝ' ) ;
#235 = FACE_BOUND ( 'NONE', #229, .T. ) ;
#236 = CYLINDRICAL_SURFACE ( 'NONE', #25, 8.000000000000000000 ) ;
#237 = DIRECTION ( 'NONE',  ( -1.000000000000000000, 0.000000000000000000, 0.000000000000000000 ) ) ;
#238 = DIRECTION ( 'NONE',  ( -1.000000000000000000, 0.000000000000000000, 0.000000000000000000 ) ) ;
#239 = ORIENTED_EDGE ( 'NONE', *, *, #26, .T. ) ;
#240 = AXIS2_PLACEMENT_3D ( 'NONE', #66, #45, #108 ) ;
#241 = DIRECTION ( 'NONE',  ( 1.000000000000000000, 0.000000000000000000, 0.000000000000000000 ) ) ;
#242 = CIRCLE ( 'NONE', #9, 8.000000000000000000 ) ;
#243 = DIRECTION ( 'NONE',  ( 0.000000000000000000, 0.000000000000000000, 1.000000000000000000 ) ) ;
#244 = PERSON_AND_ORGANIZATION ( #253, #214 ) ;
#245 = PERSON_AND_ORGANIZATION ( #253, #214 ) ;
#246 = AXIS2_PLACEMENT_3D ( 'NONE', #157, #121, #124 ) ;
#247 = SECURITY_CLASSIFICATION ( '', '', #13 ) ;
#248 = DATE_AND_TIME ( #204, #78 ) ;
#249 = ORIENTED_EDGE ( 'NONE', *, *, #206, .F. ) ;
#250 = CALENDAR_DATE ( 2023, 12, 2 ) ;
#251 = EDGE_CURVE ( 'NONE', #41, #155, #76, .T. ) ;
#252 = PERSON_AND_ORGANIZATION ( #253, #214 ) ;
#253 = PERSON ( 'NEURÈENÝ', 'NEURÈENÝ', 'NEURÈENÝ', ('NEURÈENÝ'), ('NEURÈENÝ'), ('NEURÈENÝ') ) ;
#254 = CYLINDRICAL_SURFACE ( 'NONE', #222, 8.000000000000000000 ) ;
#255 = ORIENTED_EDGE ( 'NONE', *, *, #134, .F. ) ;
ENDSEC;
END-ISO-10303-21;
