ISO-10303-21;
HEADER;
FILE_DESCRIPTION (( 'STEP AP203' ),
    '1' );
FILE_NAME ('659f.STEP',
    '2023-02-12T11:59:00',
    ( '' ),
    ( '' ),
    'SwSTEP 2.0',
    'SolidWorks 2019',
    '' );
FILE_SCHEMA (( 'CONFIG_CONTROL_DESIGN' ));
ENDSEC;

DATA;
#1 = CARTESIAN_POINT ( 'NONE',  ( 3.500000000000000000, 4.286263797015735609E-16, 400.0000000000000000 ) ) ;
#2 = VECTOR ( 'NONE', #151, 1000.000000000000000 ) ;
#3 = APPROVAL ( #217, 'NEURÈENÝ' ) ;
#4 = CARTESIAN_POINT ( 'NONE',  ( -3.500000000000000000, 0.000000000000000000, 400.0000000000000000 ) ) ;
#5 = DIRECTION ( 'NONE',  ( 0.000000000000000000, 0.000000000000000000, 1.000000000000000000 ) ) ;
#6 = DIRECTION ( 'NONE',  ( 1.000000000000000000, 0.000000000000000000, -0.000000000000000000 ) ) ;
#7 = APPROVAL ( #92, 'NEURÈENÝ' ) ;
#8 = CIRCLE ( 'NONE', #47, 3.500000000000000000 ) ;
#9 = PERSON_AND_ORGANIZATION ( #252, #94 ) ;
#10 = CALENDAR_DATE ( 2023, 12, 2 ) ;
#11 = PERSON_AND_ORGANIZATION ( #252, #94 ) ;
#12 = PERSON_AND_ORGANIZATION ( #252, #94 ) ;
#13 = CC_DESIGN_APPROVAL ( #7, ( #221 ) ) ;
#14 = ORIENTED_EDGE ( 'NONE', *, *, #59, .T. ) ;
#15 = FACE_OUTER_BOUND ( 'NONE', #55, .T. ) ;
#16 = CARTESIAN_POINT ( 'NONE',  ( -6.000000000000000888, 0.000000000000000000, 5.000000000000000000 ) ) ;
#17 = EDGE_CURVE ( 'NONE', #145, #82, #8, .T. ) ;
#18 = CC_DESIGN_SECURITY_CLASSIFICATION ( #124, ( #107 ) ) ;
#19 = DIRECTION ( 'NONE',  ( 0.000000000000000000, 0.000000000000000000, 1.000000000000000000 ) ) ;
#20 = FACE_OUTER_BOUND ( 'NONE', #31, .T. ) ;
#21 =( NAMED_UNIT ( * ) PLANE_ANGLE_UNIT ( ) SI_UNIT ( $, .RADIAN. ) );
#22 = FACE_OUTER_BOUND ( 'NONE', #96, .T. ) ;
#23 = AXIS2_PLACEMENT_3D ( 'NONE', #135, #238, #196 ) ;
#24 = DIRECTION ( 'NONE',  ( 1.000000000000000000, 0.000000000000000000, 0.000000000000000000 ) ) ;
#25 = CYLINDRICAL_SURFACE ( 'NONE', #142, 3.500000000000000000 ) ;
#26 = PRODUCT_RELATED_PRODUCT_CATEGORY ( 'detail', '', ( #212 ) ) ;
#27 = AXIS2_PLACEMENT_3D ( 'NONE', #180, #162, #29 ) ;
#28 = APPROVAL_DATE_TIME ( #204, #120 ) ;
#29 = DIRECTION ( 'NONE',  ( 1.000000000000000000, 0.000000000000000000, 0.000000000000000000 ) ) ;
#30 = PERSON_AND_ORGANIZATION_ROLE ( 'classification_officer' ) ;
#31 = EDGE_LOOP ( 'NONE', ( #171, #115, #253, #209 ) ) ;
#32 = LOCAL_TIME ( 12, 59, 0.000000000000000000, #243 ) ;
#33 = DATE_AND_TIME ( #230, #150 ) ;
#34 = ORIENTED_EDGE ( 'NONE', *, *, #36, .T. ) ;
#35 = ORIENTED_EDGE ( 'NONE', *, *, #17, .F. ) ;
#36 = EDGE_CURVE ( 'NONE', #233, #113, #189, .T. ) ;
#37 = VERTEX_POINT ( 'NONE', #149 ) ;
#38 = DIRECTION ( 'NONE',  ( -1.000000000000000000, 0.000000000000000000, 0.000000000000000000 ) ) ;
#39 = DIRECTION ( 'NONE',  ( -0.000000000000000000, -0.000000000000000000, -1.000000000000000000 ) ) ;
#40 = LINE ( 'NONE', #139, #165 ) ;
#41 = AXIS2_PLACEMENT_3D ( 'NONE', #143, #197, #63 ) ;
#42 = DIRECTION ( 'NONE',  ( 1.000000000000000000, 0.000000000000000000, 0.000000000000000000 ) ) ;
#43 = ADVANCED_FACE ( 'NONE', ( #15 ), #168, .T. ) ;
#44 = DIRECTION ( 'NONE',  ( 0.000000000000000000, 0.000000000000000000, 1.000000000000000000 ) ) ;
#45 = APPROVAL_STATUS ( 'not_yet_approved' ) ;
#46 =( GEOMETRIC_REPRESENTATION_CONTEXT ( 3 ) GLOBAL_UNCERTAINTY_ASSIGNED_CONTEXT ( ( #198 ) ) GLOBAL_UNIT_ASSIGNED_CONTEXT ( ( #62, #21, #108 ) ) REPRESENTATION_CONTEXT ( 'NONE', 'WORKASPACE' ) );
#47 = AXIS2_PLACEMENT_3D ( 'NONE', #132, #235, #117 ) ;
#48 = SHAPE_DEFINITION_REPRESENTATION ( #84, #153 ) ;
#49 = CC_DESIGN_PERSON_AND_ORGANIZATION_ASSIGNMENT ( #179, #157, ( #221 ) ) ;
#50 = MECHANICAL_CONTEXT ( 'NONE', #72, 'mechanical' ) ;
#51 = AXIS2_PLACEMENT_3D ( 'NONE', #83, #138, #255 ) ;
#52 = CC_DESIGN_DATE_AND_TIME_ASSIGNMENT ( #140, #224, ( #221 ) ) ;
#53 = APPLICATION_PROTOCOL_DEFINITION ( 'international standard', 'config_control_design', 1994, #72 ) ;
#54 = ORIENTED_EDGE ( 'NONE', *, *, #205, .F. ) ;
#55 = EDGE_LOOP ( 'NONE', ( #166, #147 ) ) ;
#56 = AXIS2_PLACEMENT_3D ( 'NONE', #101, #44, #24 ) ;
#57 = SECURITY_CLASSIFICATION_LEVEL ( 'unclassified' ) ;
#58 = ORIENTED_EDGE ( 'NONE', *, *, #148, .F. ) ;
#59 = EDGE_CURVE ( 'NONE', #37, #118, #193, .T. ) ;
#60 = CYLINDRICAL_SURFACE ( 'NONE', #226, 6.000000000000000888 ) ;
#61 = CARTESIAN_POINT ( 'NONE',  ( 0.000000000000000000, 0.000000000000000000, 5.000000000000000000 ) ) ;
#62 =( LENGTH_UNIT ( ) NAMED_UNIT ( * ) SI_UNIT ( .MILLI., .METRE. ) );
#63 = DIRECTION ( 'NONE',  ( 1.000000000000000000, 0.000000000000000000, -0.000000000000000000 ) ) ;
#64 = DIRECTION ( 'NONE',  ( 1.000000000000000000, 0.000000000000000000, 0.000000000000000000 ) ) ;
#65 = FACE_OUTER_BOUND ( 'NONE', #231, .T. ) ;
#66 = APPROVAL_PERSON_ORGANIZATION ( #12, #3, #181 ) ;
#67 = ADVANCED_FACE ( 'NONE', ( #234 ), #60, .T. ) ;
#68 = DIRECTION ( 'NONE',  ( -0.000000000000000000, -0.000000000000000000, -1.000000000000000000 ) ) ;
#69 = COORDINATED_UNIVERSAL_TIME_OFFSET ( 1, 0, .AHEAD. ) ;
#70 = APPROVAL_DATE_TIME ( #223, #3 ) ;
#71 = ADVANCED_FACE ( 'NONE', ( #164, #247 ), #76, .T. ) ;
#72 = APPLICATION_CONTEXT ( 'configuration controlled 3d designs of mechanical parts and assemblies' ) ;
#73 = AXIS2_PLACEMENT_3D ( 'NONE', #218, #123, #42 ) ;
#74 = CC_DESIGN_PERSON_AND_ORGANIZATION_ASSIGNMENT ( #167, #208, ( #107 ) ) ;
#75 = CIRCLE ( 'NONE', #184, 6.000000000000000888 ) ;
#76 = PLANE ( 'NONE',  #41 ) ;
#77 = ORIENTED_EDGE ( 'NONE', *, *, #111, .F. ) ;
#78 = ORIENTED_EDGE ( 'NONE', *, *, #201, .T. ) ;
#79 = AXIS2_PLACEMENT_3D ( 'NONE', #219, #5, #6 ) ;
#80 = VERTEX_POINT ( 'NONE', #1 ) ;
#81 = PERSON_AND_ORGANIZATION ( #252, #94 ) ;
#82 = VERTEX_POINT ( 'NONE', #200 ) ;
#83 = CARTESIAN_POINT ( 'NONE',  ( 0.000000000000000000, 0.000000000000000000, 400.0000000000000000 ) ) ;
#84 = PRODUCT_DEFINITION_SHAPE ( 'NONE', 'NONE',  #221 ) ;
#85 = DIRECTION ( 'NONE',  ( 1.000000000000000000, 0.000000000000000000, 0.000000000000000000 ) ) ;
#86 = CARTESIAN_POINT ( 'NONE',  ( -6.000000000000000888, 0.000000000000000000, 0.000000000000000000 ) ) ;
#87 = EDGE_CURVE ( 'NONE', #80, #93, #194, .T. ) ;
#88 = CARTESIAN_POINT ( 'NONE',  ( 0.000000000000000000, 0.000000000000000000, 400.0000000000000000 ) ) ;
#89 = CIRCLE ( 'NONE', #23, 6.000000000000000888 ) ;
#90 = APPLICATION_PROTOCOL_DEFINITION ( 'international standard', 'config_control_design', 1994, #158 ) ;
#91 = AXIS2_PLACEMENT_3D ( 'NONE', #154, #236, #85 ) ;
#92 = APPROVAL_STATUS ( 'not_yet_approved' ) ;
#93 = VERTEX_POINT ( 'NONE', #4 ) ;
#94 = ORGANIZATION ( 'NEURÈENÝ', 'NEURÈENÝ', '' ) ;
#95 = EDGE_LOOP ( 'NONE', ( #127, #248, #14, #78 ) ) ;
#96 = EDGE_LOOP ( 'NONE', ( #187, #54 ) ) ;
#97 = ORIENTED_EDGE ( 'NONE', *, *, #114, .T. ) ;
#98 = AXIS2_PLACEMENT_3D ( 'NONE', #122, #220, #222 ) ;
#99 = ORIENTED_EDGE ( 'NONE', *, *, #111, .T. ) ;
#100 = CARTESIAN_POINT ( 'NONE',  ( 0.000000000000000000, 0.000000000000000000, 400.0000000000000000 ) ) ;
#101 = CARTESIAN_POINT ( 'NONE',  ( 0.000000000000000000, 0.000000000000000000, 5.000000000000000000 ) ) ;
#102 = DESIGN_CONTEXT ( 'detailed design', #158, 'design' ) ;
#103 = ADVANCED_FACE ( 'NONE', ( #173 ), #155, .T. ) ;
#104 = DIRECTION ( 'NONE',  ( 1.000000000000000000, 0.000000000000000000, 0.000000000000000000 ) ) ;
#105 = DIRECTION ( 'NONE',  ( -1.000000000000000000, 0.000000000000000000, 0.000000000000000000 ) ) ;
#106 = APPROVAL_DATE_TIME ( #227, #7 ) ;
#107 = PRODUCT_DEFINITION_FORMATION_WITH_SPECIFIED_SOURCE ( 'LIBOVOLNÝ', '', #212, .NOT_KNOWN. ) ;
#108 =( NAMED_UNIT ( * ) SI_UNIT ( $, .STERADIAN. ) SOLID_ANGLE_UNIT ( ) );
#109 = CALENDAR_DATE ( 2023, 12, 2 ) ;
#110 = LOCAL_TIME ( 12, 59, 0.000000000000000000, #69 ) ;
#111 = EDGE_CURVE ( 'NONE', #82, #145, #137, .T. ) ;
#112 = COORDINATED_UNIVERSAL_TIME_OFFSET ( 1, 0, .AHEAD. ) ;
#113 = VERTEX_POINT ( 'NONE', #240 ) ;
#114 = EDGE_CURVE ( 'NONE', #37, #233, #130, .T. ) ;
#115 = ORIENTED_EDGE ( 'NONE', *, *, #254, .T. ) ;
#116 = CARTESIAN_POINT ( 'NONE',  ( 0.000000000000000000, 0.000000000000000000, 400.0000000000000000 ) ) ;
#117 = DIRECTION ( 'NONE',  ( 1.000000000000000000, 0.000000000000000000, 0.000000000000000000 ) ) ;
#118 = VERTEX_POINT ( 'NONE', #86 ) ;
#119 = CARTESIAN_POINT ( 'NONE',  ( 0.000000000000000000, 0.000000000000000000, 400.0000000000000000 ) ) ;
#120 = APPROVAL ( #45, 'NEURÈENÝ' ) ;
#121 = LINE ( 'NONE', #202, #2 ) ;
#122 = CARTESIAN_POINT ( 'NONE',  ( 0.000000000000000000, 0.000000000000000000, 5.000000000000000000 ) ) ;
#123 = DIRECTION ( 'NONE',  ( 0.000000000000000000, 0.000000000000000000, 1.000000000000000000 ) ) ;
#124 = SECURITY_CLASSIFICATION ( '', '', #57 ) ;
#125 = VECTOR ( 'NONE', #144, 1000.000000000000000 ) ;
#126 = CC_DESIGN_PERSON_AND_ORGANIZATION_ASSIGNMENT ( #128, #191, ( #107 ) ) ;
#127 = ORIENTED_EDGE ( 'NONE', *, *, #36, .F. ) ;
#128 = PERSON_AND_ORGANIZATION ( #252, #94 ) ;
#129 = ORIENTED_EDGE ( 'NONE', *, *, #205, .T. ) ;
#130 = CIRCLE ( 'NONE', #91, 6.000000000000000888 ) ;
#131 = ORIENTED_EDGE ( 'NONE', *, *, #59, .F. ) ;
#132 = CARTESIAN_POINT ( 'NONE',  ( 0.000000000000000000, 0.000000000000000000, 5.000000000000000000 ) ) ;
#133 = EDGE_LOOP ( 'NONE', ( #97, #232 ) ) ;
#134 = DIRECTION ( 'NONE',  ( 0.000000000000000000, 0.000000000000000000, 1.000000000000000000 ) ) ;
#135 = CARTESIAN_POINT ( 'NONE',  ( 0.000000000000000000, 0.000000000000000000, 5.000000000000000000 ) ) ;
#136 = CARTESIAN_POINT ( 'NONE',  ( 6.000000000000000888, 7.347880794884120722E-16, 5.000000000000000000 ) ) ;
#137 = CIRCLE ( 'NONE', #56, 3.500000000000000000 ) ;
#138 = DIRECTION ( 'NONE',  ( 0.000000000000000000, 0.000000000000000000, 1.000000000000000000 ) ) ;
#139 = CARTESIAN_POINT ( 'NONE',  ( 3.500000000000000000, 4.286263797015735609E-16, 400.0000000000000000 ) ) ;
#140 = DATE_AND_TIME ( #109, #110 ) ;
#141 = CALENDAR_DATE ( 2023, 12, 2 ) ;
#142 = AXIS2_PLACEMENT_3D ( 'NONE', #88, #176, #242 ) ;
#143 = CARTESIAN_POINT ( 'NONE',  ( 0.000000000000000000, 0.000000000000000000, 5.000000000000000000 ) ) ;
#144 = DIRECTION ( 'NONE',  ( -0.000000000000000000, -0.000000000000000000, -1.000000000000000000 ) ) ;
#145 = VERTEX_POINT ( 'NONE', #152 ) ;
#146 = AXIS2_PLACEMENT_3D ( 'NONE', #116, #19, #192 ) ;
#147 = ORIENTED_EDGE ( 'NONE', *, *, #87, .T. ) ;
#148 = EDGE_CURVE ( 'NONE', #93, #80, #160, .T. ) ;
#149 = CARTESIAN_POINT ( 'NONE',  ( -6.000000000000000888, 0.000000000000000000, 5.000000000000000000 ) ) ;
#150 = LOCAL_TIME ( 12, 59, 0.000000000000000000, #112 ) ;
#151 = DIRECTION ( 'NONE',  ( -0.000000000000000000, -0.000000000000000000, -1.000000000000000000 ) ) ;
#152 = CARTESIAN_POINT ( 'NONE',  ( 3.500000000000000000, 4.286263797015735609E-16, 5.000000000000000000 ) ) ;
#153 = ADVANCED_BREP_SHAPE_REPRESENTATION ( '659f', ( #156, #27 ), #46 ) ;
#154 = CARTESIAN_POINT ( 'NONE',  ( 0.000000000000000000, 0.000000000000000000, 5.000000000000000000 ) ) ;
#155 = CYLINDRICAL_SURFACE ( 'NONE', #98, 6.000000000000000888 ) ;
#156 = MANIFOLD_SOLID_BREP ( 'Pøidat vysunutím3', #216 ) ;
#157 = PERSON_AND_ORGANIZATION_ROLE ( 'creator' ) ;
#158 = APPLICATION_CONTEXT ( 'configuration controlled 3d designs of mechanical parts and assemblies' ) ;
#159 = PERSON_AND_ORGANIZATION ( #252, #94 ) ;
#160 = CIRCLE ( 'NONE', #188, 3.500000000000000000 ) ;
#161 = APPROVAL_ROLE ( '' ) ;
#162 = DIRECTION ( 'NONE',  ( 0.000000000000000000, 0.000000000000000000, 1.000000000000000000 ) ) ;
#163 = EDGE_CURVE ( 'NONE', #93, #82, #121, .T. ) ;
#164 = FACE_BOUND ( 'NONE', #249, .T. ) ;
#165 = VECTOR ( 'NONE', #68, 1000.000000000000000 ) ;
#166 = ORIENTED_EDGE ( 'NONE', *, *, #148, .T. ) ;
#167 = PERSON_AND_ORGANIZATION ( #252, #94 ) ;
#168 = PLANE ( 'NONE',  #146 ) ;
#169 = DIRECTION ( 'NONE',  ( -0.000000000000000000, -0.000000000000000000, -1.000000000000000000 ) ) ;
#170 = CC_DESIGN_APPROVAL ( #120, ( #107 ) ) ;
#171 = ORIENTED_EDGE ( 'NONE', *, *, #87, .F. ) ;
#172 = PLANE ( 'NONE',  #79 ) ;
#173 = FACE_OUTER_BOUND ( 'NONE', #95, .T. ) ;
#174 = LOCAL_TIME ( 12, 59, 0.000000000000000000, #185 ) ;
#175 = DIRECTION ( 'NONE',  ( 0.000000000000000000, 0.000000000000000000, 1.000000000000000000 ) ) ;
#176 = DIRECTION ( 'NONE',  ( -0.000000000000000000, -0.000000000000000000, -1.000000000000000000 ) ) ;
#177 = CARTESIAN_POINT ( 'NONE',  ( 0.000000000000000000, 0.000000000000000000, 0.000000000000000000 ) ) ;
#178 = ADVANCED_FACE ( 'NONE', ( #65 ), #239, .T. ) ;
#179 = PERSON_AND_ORGANIZATION ( #252, #94 ) ;
#180 = CARTESIAN_POINT ( 'NONE',  ( 0.000000000000000000, 0.000000000000000000, 0.000000000000000000 ) ) ;
#181 = APPROVAL_ROLE ( '' ) ;
#182 = CC_DESIGN_DATE_AND_TIME_ASSIGNMENT ( #33, #186, ( #124 ) ) ;
#183 = CALENDAR_DATE ( 2023, 12, 2 ) ;
#184 = AXIS2_PLACEMENT_3D ( 'NONE', #177, #134, #64 ) ;
#185 = COORDINATED_UNIVERSAL_TIME_OFFSET ( 1, 0, .AHEAD. ) ;
#186 = DATE_TIME_ROLE ( 'classification_date' ) ;
#187 = ORIENTED_EDGE ( 'NONE', *, *, #201, .F. ) ;
#188 = AXIS2_PLACEMENT_3D ( 'NONE', #100, #175, #104 ) ;
#189 = LINE ( 'NONE', #215, #125 ) ;
#190 = EDGE_CURVE ( 'NONE', #233, #37, #89, .T. ) ;
#191 = PERSON_AND_ORGANIZATION_ROLE ( 'creator' ) ;
#192 = DIRECTION ( 'NONE',  ( 1.000000000000000000, 0.000000000000000000, -0.000000000000000000 ) ) ;
#193 = LINE ( 'NONE', #16, #244 ) ;
#194 = CIRCLE ( 'NONE', #51, 3.500000000000000000 ) ;
#195 = ORIENTED_EDGE ( 'NONE', *, *, #190, .F. ) ;
#196 = DIRECTION ( 'NONE',  ( 1.000000000000000000, 0.000000000000000000, 0.000000000000000000 ) ) ;
#197 = DIRECTION ( 'NONE',  ( 0.000000000000000000, 0.000000000000000000, 1.000000000000000000 ) ) ;
#198 = UNCERTAINTY_MEASURE_WITH_UNIT (LENGTH_MEASURE( 1.000000000000000082E-05 ), #62, 'distance_accuracy_value', 'NONE');
#199 = CIRCLE ( 'NONE', #73, 6.000000000000000888 ) ;
#200 = CARTESIAN_POINT ( 'NONE',  ( -3.500000000000000000, 0.000000000000000000, 5.000000000000000000 ) ) ;
#201 = EDGE_CURVE ( 'NONE', #118, #113, #199, .T. ) ;
#202 = CARTESIAN_POINT ( 'NONE',  ( -3.500000000000000000, 0.000000000000000000, 400.0000000000000000 ) ) ;
#203 = APPROVAL_PERSON_ORGANIZATION ( #159, #7, #246 ) ;
#204 = DATE_AND_TIME ( #10, #174 ) ;
#205 = EDGE_CURVE ( 'NONE', #113, #118, #75, .T. ) ;
#206 = LOCAL_TIME ( 12, 59, 0.000000000000000000, #225 ) ;
#207 = ORIENTED_EDGE ( 'NONE', *, *, #163, .T. ) ;
#208 = PERSON_AND_ORGANIZATION_ROLE ( 'design_supplier' ) ;
#209 = ORIENTED_EDGE ( 'NONE', *, *, #163, .F. ) ;
#210 = ADVANCED_FACE ( 'NONE', ( #22 ), #172, .F. ) ;
#211 = EDGE_LOOP ( 'NONE', ( #195, #34, #129, #131 ) ) ;
#212 = PRODUCT ( '659f', '659f', '', ( #50 ) ) ;
#213 = DIRECTION ( 'NONE',  ( -0.000000000000000000, -0.000000000000000000, -1.000000000000000000 ) ) ;
#214 = CC_DESIGN_PERSON_AND_ORGANIZATION_ASSIGNMENT ( #81, #30, ( #124 ) ) ;
#215 = CARTESIAN_POINT ( 'NONE',  ( 6.000000000000000888, 7.347880794884120722E-16, 5.000000000000000000 ) ) ;
#216 = CLOSED_SHELL ( 'NONE', ( #245, #67, #103, #71, #210, #178, #43 ) ) ;
#217 = APPROVAL_STATUS ( 'not_yet_approved' ) ;
#218 = CARTESIAN_POINT ( 'NONE',  ( 0.000000000000000000, 0.000000000000000000, 0.000000000000000000 ) ) ;
#219 = CARTESIAN_POINT ( 'NONE',  ( 0.000000000000000000, 0.000000000000000000, 0.000000000000000000 ) ) ;
#220 = DIRECTION ( 'NONE',  ( -0.000000000000000000, -0.000000000000000000, -1.000000000000000000 ) ) ;
#221 = PRODUCT_DEFINITION ( 'NEZNÁMÝ', '', #107, #102 ) ;
#222 = DIRECTION ( 'NONE',  ( -1.000000000000000000, 0.000000000000000000, 0.000000000000000000 ) ) ;
#223 = DATE_AND_TIME ( #141, #206 ) ;
#224 = DATE_TIME_ROLE ( 'creation_date' ) ;
#225 = COORDINATED_UNIVERSAL_TIME_OFFSET ( 1, 0, .AHEAD. ) ;
#226 = AXIS2_PLACEMENT_3D ( 'NONE', #61, #213, #38 ) ;
#227 = DATE_AND_TIME ( #183, #32 ) ;
#228 = PERSON_AND_ORGANIZATION_ROLE ( 'design_owner' ) ;
#229 = CC_DESIGN_PERSON_AND_ORGANIZATION_ASSIGNMENT ( #11, #228, ( #212 ) ) ;
#230 = CALENDAR_DATE ( 2023, 12, 2 ) ;
#231 = EDGE_LOOP ( 'NONE', ( #251, #58, #207, #99 ) ) ;
#232 = ORIENTED_EDGE ( 'NONE', *, *, #190, .T. ) ;
#233 = VERTEX_POINT ( 'NONE', #136 ) ;
#234 = FACE_OUTER_BOUND ( 'NONE', #211, .T. ) ;
#235 = DIRECTION ( 'NONE',  ( 0.000000000000000000, 0.000000000000000000, 1.000000000000000000 ) ) ;
#236 = DIRECTION ( 'NONE',  ( 0.000000000000000000, 0.000000000000000000, 1.000000000000000000 ) ) ;
#237 = APPROVAL_PERSON_ORGANIZATION ( #9, #120, #161 ) ;
#238 = DIRECTION ( 'NONE',  ( 0.000000000000000000, 0.000000000000000000, 1.000000000000000000 ) ) ;
#239 = CYLINDRICAL_SURFACE ( 'NONE', #250, 3.500000000000000000 ) ;
#240 = CARTESIAN_POINT ( 'NONE',  ( 6.000000000000000888, 7.347880794884120722E-16, 0.000000000000000000 ) ) ;
#241 = CC_DESIGN_APPROVAL ( #3, ( #124 ) ) ;
#242 = DIRECTION ( 'NONE',  ( -1.000000000000000000, 0.000000000000000000, 0.000000000000000000 ) ) ;
#243 = COORDINATED_UNIVERSAL_TIME_OFFSET ( 1, 0, .AHEAD. ) ;
#244 = VECTOR ( 'NONE', #169, 1000.000000000000000 ) ;
#245 = ADVANCED_FACE ( 'NONE', ( #20 ), #25, .T. ) ;
#246 = APPROVAL_ROLE ( '' ) ;
#247 = FACE_OUTER_BOUND ( 'NONE', #133, .T. ) ;
#248 = ORIENTED_EDGE ( 'NONE', *, *, #114, .F. ) ;
#249 = EDGE_LOOP ( 'NONE', ( #77, #35 ) ) ;
#250 = AXIS2_PLACEMENT_3D ( 'NONE', #119, #39, #105 ) ;
#251 = ORIENTED_EDGE ( 'NONE', *, *, #254, .F. ) ;
#252 = PERSON ( 'NEURÈENÝ', 'NEURÈENÝ', 'NEURÈENÝ', ('NEURÈENÝ'), ('NEURÈENÝ'), ('NEURÈENÝ') ) ;
#253 = ORIENTED_EDGE ( 'NONE', *, *, #17, .T. ) ;
#254 = EDGE_CURVE ( 'NONE', #80, #145, #40, .T. ) ;
#255 = DIRECTION ( 'NONE',  ( 1.000000000000000000, 0.000000000000000000, 0.000000000000000000 ) ) ;
ENDSEC;
END-ISO-10303-21;
