ISO-10303-21;
HEADER;
FILE_DESCRIPTION (( 'STEP AP203' ),
    '1' );
FILE_NAME ('d6e7.STEP',
    '2023-06-29T07:49:43',
    ( '' ),
    ( '' ),
    'SwSTEP 2.0',
    'SolidWorks 2019',
    '' );
FILE_SCHEMA (( 'CONFIG_CONTROL_DESIGN' ));
ENDSEC;

DATA;
#1 = APPROVAL_STATUS ( 'not_yet_approved' ) ;
#2 = DIRECTION ( 'NONE',  ( 1.000000000000000000, 0.000000000000000000, 0.000000000000000000 ) ) ;
#3 = AXIS2_PLACEMENT_3D ( 'NONE', #4, #225, #57 ) ;
#4 = CARTESIAN_POINT ( 'NONE',  ( 0.000000000000000000, 0.000000000000000000, 3.000000000000000000 ) ) ;
#5 = DATE_AND_TIME ( #26, #53 ) ;
#6 = PERSON_AND_ORGANIZATION_ROLE ( 'creator' ) ;
#7 = DIRECTION ( 'NONE',  ( 1.000000000000000000, 0.000000000000000000, -0.000000000000000000 ) ) ;
#8 = SECURITY_CLASSIFICATION ( '', '', #215 ) ;
#9 = EDGE_CURVE ( 'NONE', #12, #163, #233, .T. ) ;
#10 = CC_DESIGN_APPROVAL ( #102, ( #8 ) ) ;
#11 = CARTESIAN_POINT ( 'NONE',  ( 0.000000000000000000, 0.000000000000000000, 100.0000000000000000 ) ) ;
#12 = VERTEX_POINT ( 'NONE', #187 ) ;
#13 = APPROVAL_DATE_TIME ( #142, #227 ) ;
#14 = ADVANCED_BREP_SHAPE_REPRESENTATION ( 'd6e7', ( #194, #86 ), #38 ) ;
#15 = AXIS2_PLACEMENT_3D ( 'NONE', #156, #103, #2 ) ;
#16 = CARTESIAN_POINT ( 'NONE',  ( 0.000000000000000000, 0.000000000000000000, 0.000000000000000000 ) ) ;
#17 = CARTESIAN_POINT ( 'NONE',  ( 0.000000000000000000, 0.000000000000000000, 100.0000000000000000 ) ) ;
#18 = EDGE_CURVE ( 'NONE', #193, #201, #148, .T. ) ;
#19 = PERSON_AND_ORGANIZATION ( #112, #240 ) ;
#20 = DIRECTION ( 'NONE',  ( -0.000000000000000000, -0.000000000000000000, -1.000000000000000000 ) ) ;
#21 = PERSON_AND_ORGANIZATION ( #112, #240 ) ;
#22 = APPROVAL_PERSON_ORGANIZATION ( #195, #227, #221 ) ;
#23 = CC_DESIGN_PERSON_AND_ORGANIZATION_ASSIGNMENT ( #37, #74, ( #8 ) ) ;
#24 = COORDINATED_UNIVERSAL_TIME_OFFSET ( 1, 0, .AHEAD. ) ;
#25 = FACE_OUTER_BOUND ( 'NONE', #205, .T. ) ;
#26 = CALENDAR_DATE ( 2023, 29, 6 ) ;
#27 = EDGE_CURVE ( 'NONE', #201, #193, #47, .T. ) ;
#28 = PERSON_AND_ORGANIZATION ( #112, #240 ) ;
#29 = FACE_OUTER_BOUND ( 'NONE', #174, .T. ) ;
#30 = ORIENTED_EDGE ( 'NONE', *, *, #149, .F. ) ;
#31 = CALENDAR_DATE ( 2023, 29, 6 ) ;
#32 = COORDINATED_UNIVERSAL_TIME_OFFSET ( 1, 0, .AHEAD. ) ;
#33 = AXIS2_PLACEMENT_3D ( 'NONE', #17, #219, #63 ) ;
#34 = ORIENTED_EDGE ( 'NONE', *, *, #234, .T. ) ;
#35 = DIRECTION ( 'NONE',  ( 1.000000000000000000, 0.000000000000000000, 0.000000000000000000 ) ) ;
#36 = VERTEX_POINT ( 'NONE', #44 ) ;
#37 = PERSON_AND_ORGANIZATION ( #112, #240 ) ;
#38 =( GEOMETRIC_REPRESENTATION_CONTEXT ( 3 ) GLOBAL_UNCERTAINTY_ASSIGNED_CONTEXT ( ( #146 ) ) GLOBAL_UNIT_ASSIGNED_CONTEXT ( ( #147, #66, #180 ) ) REPRESENTATION_CONTEXT ( 'NONE', 'WORKASPACE' ) );
#39 = DIRECTION ( 'NONE',  ( 0.000000000000000000, 0.000000000000000000, 1.000000000000000000 ) ) ;
#40 = DIRECTION ( 'NONE',  ( 1.000000000000000000, 0.000000000000000000, 0.000000000000000000 ) ) ;
#41 = APPROVAL_DATE_TIME ( #5, #121 ) ;
#42 = FACE_OUTER_BOUND ( 'NONE', #65, .T. ) ;
#43 = VECTOR ( 'NONE', #71, 1000.000000000000000 ) ;
#44 = CARTESIAN_POINT ( 'NONE',  ( 4.000000000000000000, 4.898587196589412829E-16, 0.000000000000000000 ) ) ;
#45 = VERTEX_POINT ( 'NONE', #84 ) ;
#46 = CARTESIAN_POINT ( 'NONE',  ( -2.500000000000000000, 0.000000000000000000, 100.0000000000000000 ) ) ;
#47 = CIRCLE ( 'NONE', #181, 2.500000000000000000 ) ;
#48 = CC_DESIGN_PERSON_AND_ORGANIZATION_ASSIGNMENT ( #171, #192, ( #226 ) ) ;
#49 = CARTESIAN_POINT ( 'NONE',  ( 0.000000000000000000, 0.000000000000000000, 3.000000000000000000 ) ) ;
#50 = DIRECTION ( 'NONE',  ( 1.000000000000000000, 0.000000000000000000, 0.000000000000000000 ) ) ;
#51 = DIRECTION ( 'NONE',  ( -1.000000000000000000, 0.000000000000000000, 0.000000000000000000 ) ) ;
#52 = CIRCLE ( 'NONE', #244, 4.000000000000000000 ) ;
#53 = LOCAL_TIME ( 9, 49, 43.00000000000000000, #200 ) ;
#54 = ORIENTED_EDGE ( 'NONE', *, *, #18, .F. ) ;
#55 = EDGE_CURVE ( 'NONE', #163, #12, #185, .T. ) ;
#56 = CIRCLE ( 'NONE', #206, 4.000000000000000000 ) ;
#57 = DIRECTION ( 'NONE',  ( -1.000000000000000000, 0.000000000000000000, 0.000000000000000000 ) ) ;
#58 = APPROVAL_PERSON_ORGANIZATION ( #28, #102, #136 ) ;
#59 = APPROVAL_DATE_TIME ( #80, #102 ) ;
#60 = ORIENTED_EDGE ( 'NONE', *, *, #61, .F. ) ;
#61 = EDGE_CURVE ( 'NONE', #45, #36, #110, .T. ) ;
#62 = DIRECTION ( 'NONE',  ( 0.000000000000000000, 0.000000000000000000, 1.000000000000000000 ) ) ;
#63 = DIRECTION ( 'NONE',  ( -1.000000000000000000, 0.000000000000000000, 0.000000000000000000 ) ) ;
#64 = CARTESIAN_POINT ( 'NONE',  ( 4.000000000000000000, 4.898587196589412829E-16, 3.000000000000000000 ) ) ;
#65 = EDGE_LOOP ( 'NONE', ( #129, #246, #228, #130 ) ) ;
#66 =( NAMED_UNIT ( * ) PLANE_ANGLE_UNIT ( ) SI_UNIT ( $, .RADIAN. ) );
#67 = CARTESIAN_POINT ( 'NONE',  ( 0.000000000000000000, 0.000000000000000000, 100.0000000000000000 ) ) ;
#68 = CYLINDRICAL_SURFACE ( 'NONE', #33, 2.500000000000000000 ) ;
#69 = LINE ( 'NONE', #46, #122 ) ;
#70 = AXIS2_PLACEMENT_3D ( 'NONE', #97, #207, #248 ) ;
#71 = DIRECTION ( 'NONE',  ( -0.000000000000000000, -0.000000000000000000, -1.000000000000000000 ) ) ;
#72 = LINE ( 'NONE', #236, #116 ) ;
#73 = DATE_TIME_ROLE ( 'classification_date' ) ;
#74 = PERSON_AND_ORGANIZATION_ROLE ( 'classification_officer' ) ;
#75 = AXIS2_PLACEMENT_3D ( 'NONE', #49, #179, #50 ) ;
#76 = CARTESIAN_POINT ( 'NONE',  ( -4.000000000000000000, 0.000000000000000000, 3.000000000000000000 ) ) ;
#77 = VERTEX_POINT ( 'NONE', #64 ) ;
#78 = DIRECTION ( 'NONE',  ( 0.000000000000000000, 0.000000000000000000, 1.000000000000000000 ) ) ;
#79 = AXIS2_PLACEMENT_3D ( 'NONE', #191, #166, #250 ) ;
#80 = DATE_AND_TIME ( #252, #150 ) ;
#81 = ORIENTED_EDGE ( 'NONE', *, *, #149, .T. ) ;
#82 = CARTESIAN_POINT ( 'NONE',  ( 0.000000000000000000, 0.000000000000000000, 3.000000000000000000 ) ) ;
#83 = ADVANCED_FACE ( 'NONE', ( #99 ), #208, .T. ) ;
#84 = CARTESIAN_POINT ( 'NONE',  ( -4.000000000000000000, 0.000000000000000000, 0.000000000000000000 ) ) ;
#85 = VECTOR ( 'NONE', #118, 1000.000000000000000 ) ;
#86 = AXIS2_PLACEMENT_3D ( 'NONE', #209, #39, #35 ) ;
#87 = DIRECTION ( 'NONE',  ( 0.000000000000000000, 0.000000000000000000, 1.000000000000000000 ) ) ;
#88 = DIRECTION ( 'NONE',  ( -0.000000000000000000, -0.000000000000000000, -1.000000000000000000 ) ) ;
#89 = CALENDAR_DATE ( 2023, 29, 6 ) ;
#90 = PRODUCT ( 'd6e7', 'd6e7', '', ( #96 ) ) ;
#91 = EDGE_LOOP ( 'NONE', ( #167, #151, #93, #30 ) ) ;
#92 = CYLINDRICAL_SURFACE ( 'NONE', #106, 4.000000000000000000 ) ;
#93 = ORIENTED_EDGE ( 'NONE', *, *, #138, .T. ) ;
#94 = LINE ( 'NONE', #152, #85 ) ;
#95 = CLOSED_SHELL ( 'NONE', ( #135, #242, #253, #157, #144, #123, #83 ) ) ;
#96 = MECHANICAL_CONTEXT ( 'NONE', #124, 'mechanical' ) ;
#97 = CARTESIAN_POINT ( 'NONE',  ( 0.000000000000000000, 0.000000000000000000, 3.000000000000000000 ) ) ;
#98 = DIRECTION ( 'NONE',  ( 0.000000000000000000, 0.000000000000000000, 1.000000000000000000 ) ) ;
#99 = FACE_OUTER_BOUND ( 'NONE', #131, .T. ) ;
#100 = EDGE_CURVE ( 'NONE', #77, #104, #52, .T. ) ;
#101 = CC_DESIGN_APPROVAL ( #121, ( #226 ) ) ;
#102 = APPROVAL ( #108, 'NEURÈENÝ' ) ;
#103 = DIRECTION ( 'NONE',  ( 0.000000000000000000, 0.000000000000000000, 1.000000000000000000 ) ) ;
#104 = VERTEX_POINT ( 'NONE', #76 ) ;
#105 = FACE_OUTER_BOUND ( 'NONE', #91, .T. ) ;
#106 = AXIS2_PLACEMENT_3D ( 'NONE', #109, #133, #51 ) ;
#107 = CC_DESIGN_PERSON_AND_ORGANIZATION_ASSIGNMENT ( #21, #139, ( #90 ) ) ;
#108 = APPROVAL_STATUS ( 'not_yet_approved' ) ;
#109 = CARTESIAN_POINT ( 'NONE',  ( 0.000000000000000000, 0.000000000000000000, 3.000000000000000000 ) ) ;
#110 = CIRCLE ( 'NONE', #79, 4.000000000000000000 ) ;
#111 = ORIENTED_EDGE ( 'NONE', *, *, #115, .F. ) ;
#112 = PERSON ( 'NEURÈENÝ', 'NEURÈENÝ', 'NEURÈENÝ', ('NEURÈENÝ'), ('NEURÈENÝ'), ('NEURÈENÝ') ) ;
#113 = EDGE_LOOP ( 'NONE', ( #60, #189 ) ) ;
#114 = DIRECTION ( 'NONE',  ( 1.000000000000000000, 0.000000000000000000, 0.000000000000000000 ) ) ;
#115 = EDGE_CURVE ( 'NONE', #77, #36, #94, .T. ) ;
#116 = VECTOR ( 'NONE', #222, 1000.000000000000000 ) ;
#117 = ORIENTED_EDGE ( 'NONE', *, *, #9, .T. ) ;
#118 = DIRECTION ( 'NONE',  ( -0.000000000000000000, -0.000000000000000000, -1.000000000000000000 ) ) ;
#119 = APPLICATION_PROTOCOL_DEFINITION ( 'international standard', 'config_control_design', 1994, #124 ) ;
#120 = PLANE ( 'NONE',  #251 ) ;
#121 = APPROVAL ( #239, 'NEURÈENÝ' ) ;
#122 = VECTOR ( 'NONE', #88, 1000.000000000000000 ) ;
#123 = ADVANCED_FACE ( 'NONE', ( #42 ), #190, .T. ) ;
#124 = APPLICATION_CONTEXT ( 'configuration controlled 3d designs of mechanical parts and assemblies' ) ;
#125 = DIRECTION ( 'NONE',  ( 1.000000000000000000, 0.000000000000000000, -0.000000000000000000 ) ) ;
#126 = LOCAL_TIME ( 9, 49, 43.00000000000000000, #32 ) ;
#127 = AXIS2_PLACEMENT_3D ( 'NONE', #11, #78, #40 ) ;
#128 = DATE_TIME_ROLE ( 'creation_date' ) ;
#129 = ORIENTED_EDGE ( 'NONE', *, *, #234, .F. ) ;
#130 = ORIENTED_EDGE ( 'NONE', *, *, #18, .T. ) ;
#131 = EDGE_LOOP ( 'NONE', ( #117, #140 ) ) ;
#132 = CC_DESIGN_APPROVAL ( #227, ( #186 ) ) ;
#133 = DIRECTION ( 'NONE',  ( -0.000000000000000000, -0.000000000000000000, -1.000000000000000000 ) ) ;
#134 = AXIS2_PLACEMENT_3D ( 'NONE', #237, #220, #125 ) ;
#135 = ADVANCED_FACE ( 'NONE', ( #217 ), #68, .T. ) ;
#136 = APPROVAL_ROLE ( '' ) ;
#137 = DESIGN_CONTEXT ( 'detailed design', #214, 'design' ) ;
#138 = EDGE_CURVE ( 'NONE', #36, #45, #56, .T. ) ;
#139 = PERSON_AND_ORGANIZATION_ROLE ( 'design_owner' ) ;
#140 = ORIENTED_EDGE ( 'NONE', *, *, #55, .T. ) ;
#141 = PRODUCT_DEFINITION_SHAPE ( 'NONE', 'NONE',  #186 ) ;
#142 = DATE_AND_TIME ( #254, #126 ) ;
#143 = EDGE_LOOP ( 'NONE', ( #232, #34, #230, #161 ) ) ;
#144 = ADVANCED_FACE ( 'NONE', ( #172 ), #120, .F. ) ;
#145 = ORIENTED_EDGE ( 'NONE', *, *, #61, .T. ) ;
#146 = UNCERTAINTY_MEASURE_WITH_UNIT (LENGTH_MEASURE( 1.000000000000000082E-05 ), #147, 'distance_accuracy_value', 'NONE');
#147 =( LENGTH_UNIT ( ) NAMED_UNIT ( * ) SI_UNIT ( .MILLI., .METRE. ) );
#148 = CIRCLE ( 'NONE', #70, 2.500000000000000000 ) ;
#149 = EDGE_CURVE ( 'NONE', #104, #45, #154, .T. ) ;
#150 = LOCAL_TIME ( 9, 49, 43.00000000000000000, #169 ) ;
#151 = ORIENTED_EDGE ( 'NONE', *, *, #115, .T. ) ;
#152 = CARTESIAN_POINT ( 'NONE',  ( 4.000000000000000000, 4.898587196589412829E-16, 3.000000000000000000 ) ) ;
#153 = CARTESIAN_POINT ( 'NONE',  ( 0.000000000000000000, 0.000000000000000000, 0.000000000000000000 ) ) ;
#154 = LINE ( 'NONE', #241, #43 ) ;
#155 = DIRECTION ( 'NONE',  ( 0.000000000000000000, 0.000000000000000000, 1.000000000000000000 ) ) ;
#156 = CARTESIAN_POINT ( 'NONE',  ( 0.000000000000000000, 0.000000000000000000, 100.0000000000000000 ) ) ;
#157 = ADVANCED_FACE ( 'NONE', ( #224, #25 ), #196, .T. ) ;
#158 = CARTESIAN_POINT ( 'NONE',  ( -2.500000000000000000, 0.000000000000000000, 3.000000000000000000 ) ) ;
#159 = PRODUCT_RELATED_PRODUCT_CATEGORY ( 'detail', '', ( #90 ) ) ;
#160 = DIRECTION ( 'NONE',  ( 1.000000000000000000, 0.000000000000000000, 0.000000000000000000 ) ) ;
#161 = ORIENTED_EDGE ( 'NONE', *, *, #235, .F. ) ;
#162 = EDGE_CURVE ( 'NONE', #104, #77, #231, .T. ) ;
#163 = VERTEX_POINT ( 'NONE', #178 ) ;
#164 = ORIENTED_EDGE ( 'NONE', *, *, #27, .F. ) ;
#165 = ORIENTED_EDGE ( 'NONE', *, *, #162, .F. ) ;
#166 = DIRECTION ( 'NONE',  ( 0.000000000000000000, 0.000000000000000000, 1.000000000000000000 ) ) ;
#167 = ORIENTED_EDGE ( 'NONE', *, *, #100, .F. ) ;
#168 = DIRECTION ( 'NONE',  ( 1.000000000000000000, 0.000000000000000000, -0.000000000000000000 ) ) ;
#169 = COORDINATED_UNIVERSAL_TIME_OFFSET ( 1, 0, .AHEAD. ) ;
#170 = CC_DESIGN_PERSON_AND_ORGANIZATION_ASSIGNMENT ( #176, #6, ( #186 ) ) ;
#171 = PERSON_AND_ORGANIZATION ( #112, #240 ) ;
#172 = FACE_OUTER_BOUND ( 'NONE', #113, .T. ) ;
#173 = DIRECTION ( 'NONE',  ( 1.000000000000000000, 0.000000000000000000, 0.000000000000000000 ) ) ;
#174 = EDGE_LOOP ( 'NONE', ( #111, #165, #81, #145 ) ) ;
#175 = CARTESIAN_POINT ( 'NONE',  ( 2.500000000000000000, 3.061616997868382648E-16, 3.000000000000000000 ) ) ;
#176 = PERSON_AND_ORGANIZATION ( #112, #240 ) ;
#177 = CYLINDRICAL_SURFACE ( 'NONE', #3, 4.000000000000000000 ) ;
#178 = CARTESIAN_POINT ( 'NONE',  ( 2.500000000000000000, 3.061616997868382648E-16, 100.0000000000000000 ) ) ;
#179 = DIRECTION ( 'NONE',  ( 0.000000000000000000, 0.000000000000000000, 1.000000000000000000 ) ) ;
#180 =( NAMED_UNIT ( * ) SI_UNIT ( $, .STERADIAN. ) SOLID_ANGLE_UNIT ( ) );
#181 = AXIS2_PLACEMENT_3D ( 'NONE', #82, #62, #114 ) ;
#182 = CC_DESIGN_PERSON_AND_ORGANIZATION_ASSIGNMENT ( #19, #212, ( #226 ) ) ;
#183 = CC_DESIGN_SECURITY_CLASSIFICATION ( #8, ( #226 ) ) ;
#184 = CARTESIAN_POINT ( 'NONE',  ( 0.000000000000000000, 0.000000000000000000, 100.0000000000000000 ) ) ;
#185 = CIRCLE ( 'NONE', #15, 2.500000000000000000 ) ;
#186 = PRODUCT_DEFINITION ( 'NEZNÁMÝ', '', #226, #137 ) ;
#187 = CARTESIAN_POINT ( 'NONE',  ( -2.500000000000000000, 0.000000000000000000, 100.0000000000000000 ) ) ;
#188 = LOCAL_TIME ( 9, 49, 43.00000000000000000, #24 ) ;
#189 = ORIENTED_EDGE ( 'NONE', *, *, #138, .F. ) ;
#190 = CYLINDRICAL_SURFACE ( 'NONE', #216, 2.500000000000000000 ) ;
#191 = CARTESIAN_POINT ( 'NONE',  ( 0.000000000000000000, 0.000000000000000000, 0.000000000000000000 ) ) ;
#192 = PERSON_AND_ORGANIZATION_ROLE ( 'creator' ) ;
#193 = VERTEX_POINT ( 'NONE', #158 ) ;
#194 = MANIFOLD_SOLID_BREP ( 'Pøidat vysunutím3', #95 ) ;
#195 = PERSON_AND_ORGANIZATION ( #112, #240 ) ;
#196 = PLANE ( 'NONE',  #134 ) ;
#197 = PERSON_AND_ORGANIZATION ( #112, #240 ) ;
#198 = DATE_AND_TIME ( #89, #218 ) ;
#199 = SHAPE_DEFINITION_REPRESENTATION ( #141, #14 ) ;
#200 = COORDINATED_UNIVERSAL_TIME_OFFSET ( 1, 0, .AHEAD. ) ;
#201 = VERTEX_POINT ( 'NONE', #175 ) ;
#202 = DATE_AND_TIME ( #31, #188 ) ;
#203 = ORIENTED_EDGE ( 'NONE', *, *, #100, .T. ) ;
#204 = CC_DESIGN_DATE_AND_TIME_ASSIGNMENT ( #198, #128, ( #186 ) ) ;
#205 = EDGE_LOOP ( 'NONE', ( #247, #203 ) ) ;
#206 = AXIS2_PLACEMENT_3D ( 'NONE', #153, #155, #173 ) ;
#207 = DIRECTION ( 'NONE',  ( 0.000000000000000000, 0.000000000000000000, 1.000000000000000000 ) ) ;
#208 = PLANE ( 'NONE',  #211 ) ;
#209 = CARTESIAN_POINT ( 'NONE',  ( 0.000000000000000000, 0.000000000000000000, 0.000000000000000000 ) ) ;
#210 = CC_DESIGN_DATE_AND_TIME_ASSIGNMENT ( #202, #73, ( #8 ) ) ;
#211 = AXIS2_PLACEMENT_3D ( 'NONE', #184, #87, #7 ) ;
#212 = PERSON_AND_ORGANIZATION_ROLE ( 'design_supplier' ) ;
#213 = APPROVAL_PERSON_ORGANIZATION ( #197, #121, #223 ) ;
#214 = APPLICATION_CONTEXT ( 'configuration controlled 3d designs of mechanical parts and assemblies' ) ;
#215 = SECURITY_CLASSIFICATION_LEVEL ( 'unclassified' ) ;
#216 = AXIS2_PLACEMENT_3D ( 'NONE', #67, #20, #249 ) ;
#217 = FACE_OUTER_BOUND ( 'NONE', #143, .T. ) ;
#218 = LOCAL_TIME ( 9, 49, 43.00000000000000000, #238 ) ;
#219 = DIRECTION ( 'NONE',  ( -0.000000000000000000, -0.000000000000000000, -1.000000000000000000 ) ) ;
#220 = DIRECTION ( 'NONE',  ( 0.000000000000000000, 0.000000000000000000, 1.000000000000000000 ) ) ;
#221 = APPROVAL_ROLE ( '' ) ;
#222 = DIRECTION ( 'NONE',  ( -0.000000000000000000, -0.000000000000000000, -1.000000000000000000 ) ) ;
#223 = APPROVAL_ROLE ( '' ) ;
#224 = FACE_BOUND ( 'NONE', #245, .T. ) ;
#225 = DIRECTION ( 'NONE',  ( -0.000000000000000000, -0.000000000000000000, -1.000000000000000000 ) ) ;
#226 = PRODUCT_DEFINITION_FORMATION_WITH_SPECIFIED_SOURCE ( 'LIBOVOLNÝ', '', #90, .NOT_KNOWN. ) ;
#227 = APPROVAL ( #1, 'NEURÈENÝ' ) ;
#228 = ORIENTED_EDGE ( 'NONE', *, *, #235, .T. ) ;
#229 = CARTESIAN_POINT ( 'NONE',  ( 0.000000000000000000, 0.000000000000000000, 3.000000000000000000 ) ) ;
#230 = ORIENTED_EDGE ( 'NONE', *, *, #27, .T. ) ;
#231 = CIRCLE ( 'NONE', #75, 4.000000000000000000 ) ;
#232 = ORIENTED_EDGE ( 'NONE', *, *, #55, .F. ) ;
#233 = CIRCLE ( 'NONE', #127, 2.500000000000000000 ) ;
#234 = EDGE_CURVE ( 'NONE', #163, #201, #72, .T. ) ;
#235 = EDGE_CURVE ( 'NONE', #12, #193, #69, .T. ) ;
#236 = CARTESIAN_POINT ( 'NONE',  ( 2.500000000000000000, 3.061616997868382648E-16, 100.0000000000000000 ) ) ;
#237 = CARTESIAN_POINT ( 'NONE',  ( 0.000000000000000000, 0.000000000000000000, 3.000000000000000000 ) ) ;
#238 = COORDINATED_UNIVERSAL_TIME_OFFSET ( 1, 0, .AHEAD. ) ;
#239 = APPROVAL_STATUS ( 'not_yet_approved' ) ;
#240 = ORGANIZATION ( 'NEURÈENÝ', 'NEURÈENÝ', '' ) ;
#241 = CARTESIAN_POINT ( 'NONE',  ( -4.000000000000000000, 0.000000000000000000, 3.000000000000000000 ) ) ;
#242 = ADVANCED_FACE ( 'NONE', ( #105 ), #177, .T. ) ;
#243 = DIRECTION ( 'NONE',  ( 0.000000000000000000, 0.000000000000000000, 1.000000000000000000 ) ) ;
#244 = AXIS2_PLACEMENT_3D ( 'NONE', #229, #243, #160 ) ;
#245 = EDGE_LOOP ( 'NONE', ( #54, #164 ) ) ;
#246 = ORIENTED_EDGE ( 'NONE', *, *, #9, .F. ) ;
#247 = ORIENTED_EDGE ( 'NONE', *, *, #162, .T. ) ;
#248 = DIRECTION ( 'NONE',  ( 1.000000000000000000, 0.000000000000000000, 0.000000000000000000 ) ) ;
#249 = DIRECTION ( 'NONE',  ( -1.000000000000000000, 0.000000000000000000, 0.000000000000000000 ) ) ;
#250 = DIRECTION ( 'NONE',  ( 1.000000000000000000, 0.000000000000000000, 0.000000000000000000 ) ) ;
#251 = AXIS2_PLACEMENT_3D ( 'NONE', #16, #98, #168 ) ;
#252 = CALENDAR_DATE ( 2023, 29, 6 ) ;
#253 = ADVANCED_FACE ( 'NONE', ( #29 ), #92, .T. ) ;
#254 = CALENDAR_DATE ( 2023, 29, 6 ) ;
#255 = APPLICATION_PROTOCOL_DEFINITION ( 'international standard', 'config_control_design', 1994, #214 ) ;
ENDSEC;
END-ISO-10303-21;
