ISO-10303-21;
HEADER;
FILE_DESCRIPTION (( 'STEP AP203' ),
    '1' );
FILE_NAME ('f6a6.STEP',
    '2023-02-12T11:15:24',
    ( '' ),
    ( '' ),
    'SwSTEP 2.0',
    'SolidWorks 2019',
    '' );
FILE_SCHEMA (( 'CONFIG_CONTROL_DESIGN' ));
ENDSEC;

DATA;
#1 = PRODUCT_DEFINITION ( 'NEZNÁMÝ', '', #122, #162 ) ;
#2 = PLANE ( 'NONE',  #48 ) ;
#3 = CARTESIAN_POINT ( 'NONE',  ( 8.000000000000000000, 9.797174393178825657E-16, 5.000000000000000000 ) ) ;
#4 = LINE ( 'NONE', #153, #230 ) ;
#5 = CARTESIAN_POINT ( 'NONE',  ( -8.000000000000000000, 0.000000000000000000, 5.000000000000000000 ) ) ;
#6 = APPROVAL_PERSON_ORGANIZATION ( #159, #9, #183 ) ;
#7 = ADVANCED_FACE ( 'NONE', ( #108 ), #25, .T. ) ;
#8 = DIRECTION ( 'NONE',  ( 1.000000000000000000, 0.000000000000000000, -0.000000000000000000 ) ) ;
#9 = APPROVAL ( #57, 'NEURÈENÝ' ) ;
#10 = DIRECTION ( 'NONE',  ( -1.000000000000000000, 0.000000000000000000, 0.000000000000000000 ) ) ;
#11 = DATE_AND_TIME ( #255, #194 ) ;
#12 = APPLICATION_PROTOCOL_DEFINITION ( 'international standard', 'config_control_design', 1994, #152 ) ;
#13 = CIRCLE ( 'NONE', #109, 5.500000000000000000 ) ;
#14 = CC_DESIGN_PERSON_AND_ORGANIZATION_ASSIGNMENT ( #140, #141, ( #122 ) ) ;
#15 = PERSON_AND_ORGANIZATION ( #135, #55 ) ;
#16 = EDGE_LOOP ( 'NONE', ( #76, #112, #251, #158 ) ) ;
#17 = ORIENTED_EDGE ( 'NONE', *, *, #126, .F. ) ;
#18 = DATE_TIME_ROLE ( 'classification_date' ) ;
#19 = DIRECTION ( 'NONE',  ( 1.000000000000000000, 0.000000000000000000, 0.000000000000000000 ) ) ;
#20 = CYLINDRICAL_SURFACE ( 'NONE', #234, 5.500000000000000000 ) ;
#21 = CALENDAR_DATE ( 2023, 12, 2 ) ;
#22 = CARTESIAN_POINT ( 'NONE',  ( 0.000000000000000000, 0.000000000000000000, 5.000000000000000000 ) ) ;
#23 = CARTESIAN_POINT ( 'NONE',  ( 0.000000000000000000, 0.000000000000000000, 0.000000000000000000 ) ) ;
#24 = VECTOR ( 'NONE', #212, 1000.000000000000000 ) ;
#25 = CYLINDRICAL_SURFACE ( 'NONE', #244, 8.000000000000000000 ) ;
#26 = APPROVAL_PERSON_ORGANIZATION ( #15, #85, #94 ) ;
#27 = FACE_OUTER_BOUND ( 'NONE', #237, .T. ) ;
#28 = ORIENTED_EDGE ( 'NONE', *, *, #126, .T. ) ;
#29 = AXIS2_PLACEMENT_3D ( 'NONE', #22, #39, #104 ) ;
#30 = VERTEX_POINT ( 'NONE', #127 ) ;
#31 = CC_DESIGN_APPROVAL ( #9, ( #122 ) ) ;
#32 = EDGE_LOOP ( 'NONE', ( #139, #52, #201, #220 ) ) ;
#33 = CC_DESIGN_DATE_AND_TIME_ASSIGNMENT ( #97, #78, ( #1 ) ) ;
#34 = ORIENTED_EDGE ( 'NONE', *, *, #95, .T. ) ;
#35 = CIRCLE ( 'NONE', #190, 5.500000000000000000 ) ;
#36 = VERTEX_POINT ( 'NONE', #242 ) ;
#37 = SECURITY_CLASSIFICATION ( '', '', #51 ) ;
#38 = LOCAL_TIME ( 12, 15, 24.00000000000000000, #182 ) ;
#39 = DIRECTION ( 'NONE',  ( 0.000000000000000000, 0.000000000000000000, 1.000000000000000000 ) ) ;
#40 = ADVANCED_BREP_SHAPE_REPRESENTATION ( 'f6a6', ( #130, #169 ), #155 ) ;
#41 = DIRECTION ( 'NONE',  ( 1.000000000000000000, 0.000000000000000000, 0.000000000000000000 ) ) ;
#42 = EDGE_CURVE ( 'NONE', #209, #239, #166, .T. ) ;
#43 = DIRECTION ( 'NONE',  ( 0.000000000000000000, 0.000000000000000000, 1.000000000000000000 ) ) ;
#44 = EDGE_LOOP ( 'NONE', ( #119, #161 ) ) ;
#45 = CIRCLE ( 'NONE', #253, 8.000000000000000000 ) ;
#46 = CARTESIAN_POINT ( 'NONE',  ( 0.000000000000000000, 0.000000000000000000, 100.0000000000000000 ) ) ;
#47 = DIRECTION ( 'NONE',  ( 0.000000000000000000, 0.000000000000000000, 1.000000000000000000 ) ) ;
#48 = AXIS2_PLACEMENT_3D ( 'NONE', #83, #170, #210 ) ;
#49 = ADVANCED_FACE ( 'NONE', ( #224 ), #2, .F. ) ;
#50 = CARTESIAN_POINT ( 'NONE',  ( -5.500000000000000000, 0.000000000000000000, 5.000000000000000000 ) ) ;
#51 = SECURITY_CLASSIFICATION_LEVEL ( 'unclassified' ) ;
#52 = ORIENTED_EDGE ( 'NONE', *, *, #100, .T. ) ;
#53 = AXIS2_PLACEMENT_3D ( 'NONE', #168, #171, #225 ) ;
#54 = DATE_AND_TIME ( #138, #116 ) ;
#55 = ORGANIZATION ( 'NEURÈENÝ', 'NEURÈENÝ', '' ) ;
#56 = CC_DESIGN_PERSON_AND_ORGANIZATION_ASSIGNMENT ( #117, #197, ( #1 ) ) ;
#57 = APPROVAL_STATUS ( 'not_yet_approved' ) ;
#58 = APPROVAL_DATE_TIME ( #11, #9 ) ;
#59 = ORIENTED_EDGE ( 'NONE', *, *, #131, .F. ) ;
#60 = CARTESIAN_POINT ( 'NONE',  ( 0.000000000000000000, 0.000000000000000000, 5.000000000000000000 ) ) ;
#61 = AXIS2_PLACEMENT_3D ( 'NONE', #173, #216, #8 ) ;
#62 = DIRECTION ( 'NONE',  ( 1.000000000000000000, 0.000000000000000000, -0.000000000000000000 ) ) ;
#63 = DIRECTION ( 'NONE',  ( -0.000000000000000000, -0.000000000000000000, -1.000000000000000000 ) ) ;
#64 = CARTESIAN_POINT ( 'NONE',  ( -8.000000000000000000, 0.000000000000000000, 5.000000000000000000 ) ) ;
#65 = COORDINATED_UNIVERSAL_TIME_OFFSET ( 1, 0, .AHEAD. ) ;
#66 = CARTESIAN_POINT ( 'NONE',  ( 0.000000000000000000, 0.000000000000000000, 0.000000000000000000 ) ) ;
#67 = DIRECTION ( 'NONE',  ( -0.000000000000000000, -0.000000000000000000, -1.000000000000000000 ) ) ;
#68 = CIRCLE ( 'NONE', #221, 8.000000000000000000 ) ;
#69 = APPLICATION_PROTOCOL_DEFINITION ( 'international standard', 'config_control_design', 1994, #249 ) ;
#70 =( LENGTH_UNIT ( ) NAMED_UNIT ( * ) SI_UNIT ( .MILLI., .METRE. ) );
#71 = CC_DESIGN_PERSON_AND_ORGANIZATION_ASSIGNMENT ( #115, #200, ( #217 ) ) ;
#72 = EDGE_CURVE ( 'NONE', #137, #30, #35, .T. ) ;
#73 = APPROVAL_DATE_TIME ( #54, #85 ) ;
#74 = ORIENTED_EDGE ( 'NONE', *, *, #95, .F. ) ;
#75 = ORIENTED_EDGE ( 'NONE', *, *, #72, .T. ) ;
#76 = ORIENTED_EDGE ( 'NONE', *, *, #100, .F. ) ;
#77 = CC_DESIGN_DATE_AND_TIME_ASSIGNMENT ( #206, #18, ( #37 ) ) ;
#78 = DATE_TIME_ROLE ( 'creation_date' ) ;
#79 = LOCAL_TIME ( 12, 15, 24.00000000000000000, #113 ) ;
#80 = APPROVAL_DATE_TIME ( #120, #254 ) ;
#81 = CARTESIAN_POINT ( 'NONE',  ( 0.000000000000000000, 0.000000000000000000, 100.0000000000000000 ) ) ;
#82 = CARTESIAN_POINT ( 'NONE',  ( -8.000000000000000000, 0.000000000000000000, 0.000000000000000000 ) ) ;
#83 = CARTESIAN_POINT ( 'NONE',  ( 0.000000000000000000, 0.000000000000000000, 0.000000000000000000 ) ) ;
#84 = DIRECTION ( 'NONE',  ( -0.000000000000000000, -0.000000000000000000, -1.000000000000000000 ) ) ;
#85 = APPROVAL ( #164, 'NEURÈENÝ' ) ;
#86 = UNCERTAINTY_MEASURE_WITH_UNIT (LENGTH_MEASURE( 1.000000000000000082E-05 ), #70, 'distance_accuracy_value', 'NONE');
#87 = VECTOR ( 'NONE', #84, 1000.000000000000000 ) ;
#88 = CIRCLE ( 'NONE', #189, 8.000000000000000000 ) ;
#89 = EDGE_LOOP ( 'NONE', ( #184, #75 ) ) ;
#90 = CIRCLE ( 'NONE', #29, 5.500000000000000000 ) ;
#91 = PERSON_AND_ORGANIZATION ( #135, #55 ) ;
#92 = CC_DESIGN_APPROVAL ( #254, ( #37 ) ) ;
#93 = VERTEX_POINT ( 'NONE', #82 ) ;
#94 = APPROVAL_ROLE ( '' ) ;
#95 = EDGE_CURVE ( 'NONE', #36, #93, #88, .T. ) ;
#96 = ORIENTED_EDGE ( 'NONE', *, *, #233, .F. ) ;
#97 = DATE_AND_TIME ( #156, #38 ) ;
#98 = VECTOR ( 'NONE', #67, 1000.000000000000000 ) ;
#99 = EDGE_LOOP ( 'NONE', ( #223, #17, #181, #114 ) ) ;
#100 = EDGE_CURVE ( 'NONE', #137, #239, #129, .T. ) ;
#101 = CARTESIAN_POINT ( 'NONE',  ( 0.000000000000000000, 0.000000000000000000, 5.000000000000000000 ) ) ;
#102 = DIRECTION ( 'NONE',  ( -0.000000000000000000, -0.000000000000000000, -1.000000000000000000 ) ) ;
#103 = APPROVAL_ROLE ( '' ) ;
#104 = DIRECTION ( 'NONE',  ( 1.000000000000000000, 0.000000000000000000, 0.000000000000000000 ) ) ;
#105 = ADVANCED_FACE ( 'NONE', ( #246 ), #185, .T. ) ;
#106 = DIRECTION ( 'NONE',  ( -0.000000000000000000, -0.000000000000000000, -1.000000000000000000 ) ) ;
#107 = AXIS2_PLACEMENT_3D ( 'NONE', #66, #143, #19 ) ;
#108 = FACE_OUTER_BOUND ( 'NONE', #202, .T. ) ;
#109 = AXIS2_PLACEMENT_3D ( 'NONE', #204, #124, #148 ) ;
#110 = FACE_BOUND ( 'NONE', #44, .T. ) ;
#111 = CYLINDRICAL_SURFACE ( 'NONE', #214, 8.000000000000000000 ) ;
#112 = ORIENTED_EDGE ( 'NONE', *, *, #133, .F. ) ;
#113 = COORDINATED_UNIVERSAL_TIME_OFFSET ( 1, 0, .AHEAD. ) ;
#114 = ORIENTED_EDGE ( 'NONE', *, *, #131, .T. ) ;
#115 = PERSON_AND_ORGANIZATION ( #135, #55 ) ;
#116 = LOCAL_TIME ( 12, 15, 24.00000000000000000, #238 ) ;
#117 = PERSON_AND_ORGANIZATION ( #135, #55 ) ;
#118 = MECHANICAL_CONTEXT ( 'NONE', #249, 'mechanical' ) ;
#119 = ORIENTED_EDGE ( 'NONE', *, *, #42, .F. ) ;
#120 = DATE_AND_TIME ( #21, #208 ) ;
#121 = AXIS2_PLACEMENT_3D ( 'NONE', #128, #106, #188 ) ;
#122 = PRODUCT_DEFINITION_FORMATION_WITH_SPECIFIED_SOURCE ( 'LIBOVOLNÝ', '', #217, .NOT_KNOWN. ) ;
#123 = EDGE_CURVE ( 'NONE', #239, #209, #90, .T. ) ;
#124 = DIRECTION ( 'NONE',  ( 0.000000000000000000, 0.000000000000000000, 1.000000000000000000 ) ) ;
#125 = DIRECTION ( 'NONE',  ( 1.000000000000000000, 0.000000000000000000, 0.000000000000000000 ) ) ;
#126 = EDGE_CURVE ( 'NONE', #177, #199, #68, .T. ) ;
#127 = CARTESIAN_POINT ( 'NONE',  ( -5.500000000000000000, 0.000000000000000000, 100.0000000000000000 ) ) ;
#128 = CARTESIAN_POINT ( 'NONE',  ( 0.000000000000000000, 0.000000000000000000, 100.0000000000000000 ) ) ;
#129 = LINE ( 'NONE', #187, #24 ) ;
#130 = MANIFOLD_SOLID_BREP ( 'Pøidat vysunutím3', #226 ) ;
#131 = EDGE_CURVE ( 'NONE', #93, #36, #174, .T. ) ;
#132 = CARTESIAN_POINT ( 'NONE',  ( 0.000000000000000000, 0.000000000000000000, 5.000000000000000000 ) ) ;
#133 = EDGE_CURVE ( 'NONE', #30, #137, #13, .T. ) ;
#134 = DIRECTION ( 'NONE',  ( 0.000000000000000000, 0.000000000000000000, 1.000000000000000000 ) ) ;
#135 = PERSON ( 'NEURÈENÝ', 'NEURÈENÝ', 'NEURÈENÝ', ('NEURÈENÝ'), ('NEURÈENÝ'), ('NEURÈENÝ') ) ;
#136 = PERSON_AND_ORGANIZATION ( #135, #55 ) ;
#137 = VERTEX_POINT ( 'NONE', #205 ) ;
#138 = CALENDAR_DATE ( 2023, 12, 2 ) ;
#139 = ORIENTED_EDGE ( 'NONE', *, *, #72, .F. ) ;
#140 = PERSON_AND_ORGANIZATION ( #135, #55 ) ;
#141 = PERSON_AND_ORGANIZATION_ROLE ( 'creator' ) ;
#142 = PERSON_AND_ORGANIZATION ( #135, #55 ) ;
#143 = DIRECTION ( 'NONE',  ( 0.000000000000000000, 0.000000000000000000, 1.000000000000000000 ) ) ;
#144 = APPROVAL_STATUS ( 'not_yet_approved' ) ;
#145 = DIRECTION ( 'NONE',  ( 0.000000000000000000, 0.000000000000000000, 1.000000000000000000 ) ) ;
#146 = EDGE_CURVE ( 'NONE', #199, #177, #45, .T. ) ;
#147 = FACE_OUTER_BOUND ( 'NONE', #16, .T. ) ;
#148 = DIRECTION ( 'NONE',  ( 1.000000000000000000, 0.000000000000000000, 0.000000000000000000 ) ) ;
#149 =( NAMED_UNIT ( * ) SI_UNIT ( $, .STERADIAN. ) SOLID_ANGLE_UNIT ( ) );
#150 = CC_DESIGN_PERSON_AND_ORGANIZATION_ASSIGNMENT ( #136, #219, ( #37 ) ) ;
#151 = CARTESIAN_POINT ( 'NONE',  ( 0.000000000000000000, 0.000000000000000000, 0.000000000000000000 ) ) ;
#152 = APPLICATION_CONTEXT ( 'configuration controlled 3d designs of mechanical parts and assemblies' ) ;
#153 = CARTESIAN_POINT ( 'NONE',  ( -5.500000000000000000, 0.000000000000000000, 100.0000000000000000 ) ) ;
#154 = ADVANCED_FACE ( 'NONE', ( #243 ), #20, .T. ) ;
#155 =( GEOMETRIC_REPRESENTATION_CONTEXT ( 3 ) GLOBAL_UNCERTAINTY_ASSIGNED_CONTEXT ( ( #86 ) ) GLOBAL_UNIT_ASSIGNED_CONTEXT ( ( #70, #215, #149 ) ) REPRESENTATION_CONTEXT ( 'NONE', 'WORKASPACE' ) );
#156 = CALENDAR_DATE ( 2023, 12, 2 ) ;
#157 = ORIENTED_EDGE ( 'NONE', *, *, #163, .T. ) ;
#158 = ORIENTED_EDGE ( 'NONE', *, *, #42, .T. ) ;
#159 = PERSON_AND_ORGANIZATION ( #135, #55 ) ;
#160 = CC_DESIGN_APPROVAL ( #85, ( #1 ) ) ;
#161 = ORIENTED_EDGE ( 'NONE', *, *, #123, .F. ) ;
#162 = DESIGN_CONTEXT ( 'detailed design', #152, 'design' ) ;
#163 = EDGE_CURVE ( 'NONE', #199, #36, #207, .T. ) ;
#164 = APPROVAL_STATUS ( 'not_yet_approved' ) ;
#165 = ORIENTED_EDGE ( 'NONE', *, *, #146, .F. ) ;
#166 = CIRCLE ( 'NONE', #53, 5.500000000000000000 ) ;
#167 = CARTESIAN_POINT ( 'NONE',  ( 0.000000000000000000, 0.000000000000000000, 100.0000000000000000 ) ) ;
#168 = CARTESIAN_POINT ( 'NONE',  ( 0.000000000000000000, 0.000000000000000000, 5.000000000000000000 ) ) ;
#169 = AXIS2_PLACEMENT_3D ( 'NONE', #151, #134, #236 ) ;
#170 = DIRECTION ( 'NONE',  ( 0.000000000000000000, 0.000000000000000000, 1.000000000000000000 ) ) ;
#171 = DIRECTION ( 'NONE',  ( 0.000000000000000000, 0.000000000000000000, 1.000000000000000000 ) ) ;
#172 = DIRECTION ( 'NONE',  ( 0.000000000000000000, 0.000000000000000000, 1.000000000000000000 ) ) ;
#173 = CARTESIAN_POINT ( 'NONE',  ( 0.000000000000000000, 0.000000000000000000, 5.000000000000000000 ) ) ;
#174 = CIRCLE ( 'NONE', #107, 8.000000000000000000 ) ;
#175 = DIRECTION ( 'NONE',  ( -0.000000000000000000, -0.000000000000000000, -1.000000000000000000 ) ) ;
#176 = CARTESIAN_POINT ( 'NONE',  ( 8.000000000000000000, 9.797174393178825657E-16, 5.000000000000000000 ) ) ;
#177 = VERTEX_POINT ( 'NONE', #64 ) ;
#178 = FACE_OUTER_BOUND ( 'NONE', #99, .T. ) ;
#179 = PRODUCT_DEFINITION_SHAPE ( 'NONE', 'NONE',  #1 ) ;
#180 = AXIS2_PLACEMENT_3D ( 'NONE', #167, #241, #62 ) ;
#181 = ORIENTED_EDGE ( 'NONE', *, *, #233, .T. ) ;
#182 = COORDINATED_UNIVERSAL_TIME_OFFSET ( 1, 0, .AHEAD. ) ;
#183 = APPROVAL_ROLE ( '' ) ;
#184 = ORIENTED_EDGE ( 'NONE', *, *, #133, .T. ) ;
#185 = PLANE ( 'NONE',  #180 ) ;
#186 = DIRECTION ( 'NONE',  ( -1.000000000000000000, 0.000000000000000000, 0.000000000000000000 ) ) ;
#187 = CARTESIAN_POINT ( 'NONE',  ( 5.500000000000000000, 6.735557395310442023E-16, 100.0000000000000000 ) ) ;
#188 = DIRECTION ( 'NONE',  ( -1.000000000000000000, 0.000000000000000000, 0.000000000000000000 ) ) ;
#189 = AXIS2_PLACEMENT_3D ( 'NONE', #23, #47, #245 ) ;
#190 = AXIS2_PLACEMENT_3D ( 'NONE', #81, #43, #232 ) ;
#191 = ADVANCED_FACE ( 'NONE', ( #147 ), #231, .T. ) ;
#192 = CARTESIAN_POINT ( 'NONE',  ( 0.000000000000000000, 0.000000000000000000, 5.000000000000000000 ) ) ;
#193 = APPROVAL_PERSON_ORGANIZATION ( #142, #254, #103 ) ;
#194 = LOCAL_TIME ( 12, 15, 24.00000000000000000, #235 ) ;
#195 = CARTESIAN_POINT ( 'NONE',  ( 5.500000000000000000, 6.735557395310442023E-16, 5.000000000000000000 ) ) ;
#196 = EDGE_CURVE ( 'NONE', #30, #209, #4, .T. ) ;
#197 = PERSON_AND_ORGANIZATION_ROLE ( 'creator' ) ;
#198 = CALENDAR_DATE ( 2023, 12, 2 ) ;
#199 = VERTEX_POINT ( 'NONE', #176 ) ;
#200 = PERSON_AND_ORGANIZATION_ROLE ( 'design_owner' ) ;
#201 = ORIENTED_EDGE ( 'NONE', *, *, #123, .T. ) ;
#202 = EDGE_LOOP ( 'NONE', ( #165, #157, #34, #96 ) ) ;
#203 = EDGE_LOOP ( 'NONE', ( #59, #74 ) ) ;
#204 = CARTESIAN_POINT ( 'NONE',  ( 0.000000000000000000, 0.000000000000000000, 100.0000000000000000 ) ) ;
#205 = CARTESIAN_POINT ( 'NONE',  ( 5.500000000000000000, 6.735557395310442023E-16, 100.0000000000000000 ) ) ;
#206 = DATE_AND_TIME ( #198, #79 ) ;
#207 = LINE ( 'NONE', #3, #87 ) ;
#208 = LOCAL_TIME ( 12, 15, 24.00000000000000000, #65 ) ;
#209 = VERTEX_POINT ( 'NONE', #50 ) ;
#210 = DIRECTION ( 'NONE',  ( 1.000000000000000000, 0.000000000000000000, -0.000000000000000000 ) ) ;
#211 = PRODUCT_RELATED_PRODUCT_CATEGORY ( 'detail', '', ( #217 ) ) ;
#212 = DIRECTION ( 'NONE',  ( -0.000000000000000000, -0.000000000000000000, -1.000000000000000000 ) ) ;
#213 = LINE ( 'NONE', #5, #98 ) ;
#214 = AXIS2_PLACEMENT_3D ( 'NONE', #132, #250, #10 ) ;
#215 =( NAMED_UNIT ( * ) PLANE_ANGLE_UNIT ( ) SI_UNIT ( $, .RADIAN. ) );
#216 = DIRECTION ( 'NONE',  ( 0.000000000000000000, 0.000000000000000000, 1.000000000000000000 ) ) ;
#217 = PRODUCT ( 'f6a6', 'f6a6', '', ( #118 ) ) ;
#218 = CC_DESIGN_SECURITY_CLASSIFICATION ( #37, ( #122 ) ) ;
#219 = PERSON_AND_ORGANIZATION_ROLE ( 'classification_officer' ) ;
#220 = ORIENTED_EDGE ( 'NONE', *, *, #196, .F. ) ;
#221 = AXIS2_PLACEMENT_3D ( 'NONE', #60, #172, #41 ) ;
#222 = ORIENTED_EDGE ( 'NONE', *, *, #146, .T. ) ;
#223 = ORIENTED_EDGE ( 'NONE', *, *, #163, .F. ) ;
#224 = FACE_OUTER_BOUND ( 'NONE', #203, .T. ) ;
#225 = DIRECTION ( 'NONE',  ( 1.000000000000000000, 0.000000000000000000, 0.000000000000000000 ) ) ;
#226 = CLOSED_SHELL ( 'NONE', ( #154, #7, #240, #228, #49, #191, #105 ) ) ;
#227 = DIRECTION ( 'NONE',  ( -1.000000000000000000, 0.000000000000000000, 0.000000000000000000 ) ) ;
#228 = ADVANCED_FACE ( 'NONE', ( #110, #27 ), #247, .T. ) ;
#229 = SHAPE_DEFINITION_REPRESENTATION ( #179, #40 ) ;
#230 = VECTOR ( 'NONE', #175, 1000.000000000000000 ) ;
#231 = CYLINDRICAL_SURFACE ( 'NONE', #121, 5.500000000000000000 ) ;
#232 = DIRECTION ( 'NONE',  ( 1.000000000000000000, 0.000000000000000000, 0.000000000000000000 ) ) ;
#233 = EDGE_CURVE ( 'NONE', #177, #93, #213, .T. ) ;
#234 = AXIS2_PLACEMENT_3D ( 'NONE', #46, #63, #227 ) ;
#235 = COORDINATED_UNIVERSAL_TIME_OFFSET ( 1, 0, .AHEAD. ) ;
#236 = DIRECTION ( 'NONE',  ( 1.000000000000000000, 0.000000000000000000, 0.000000000000000000 ) ) ;
#237 = EDGE_LOOP ( 'NONE', ( #28, #222 ) ) ;
#238 = COORDINATED_UNIVERSAL_TIME_OFFSET ( 1, 0, .AHEAD. ) ;
#239 = VERTEX_POINT ( 'NONE', #195 ) ;
#240 = ADVANCED_FACE ( 'NONE', ( #178 ), #111, .T. ) ;
#241 = DIRECTION ( 'NONE',  ( 0.000000000000000000, 0.000000000000000000, 1.000000000000000000 ) ) ;
#242 = CARTESIAN_POINT ( 'NONE',  ( 8.000000000000000000, 9.797174393178825657E-16, 0.000000000000000000 ) ) ;
#243 = FACE_OUTER_BOUND ( 'NONE', #32, .T. ) ;
#244 = AXIS2_PLACEMENT_3D ( 'NONE', #192, #102, #186 ) ;
#245 = DIRECTION ( 'NONE',  ( 1.000000000000000000, 0.000000000000000000, 0.000000000000000000 ) ) ;
#246 = FACE_OUTER_BOUND ( 'NONE', #89, .T. ) ;
#247 = PLANE ( 'NONE',  #61 ) ;
#248 = CC_DESIGN_PERSON_AND_ORGANIZATION_ASSIGNMENT ( #91, #252, ( #122 ) ) ;
#249 = APPLICATION_CONTEXT ( 'configuration controlled 3d designs of mechanical parts and assemblies' ) ;
#250 = DIRECTION ( 'NONE',  ( -0.000000000000000000, -0.000000000000000000, -1.000000000000000000 ) ) ;
#251 = ORIENTED_EDGE ( 'NONE', *, *, #196, .T. ) ;
#252 = PERSON_AND_ORGANIZATION_ROLE ( 'design_supplier' ) ;
#253 = AXIS2_PLACEMENT_3D ( 'NONE', #101, #145, #125 ) ;
#254 = APPROVAL ( #144, 'NEURÈENÝ' ) ;
#255 = CALENDAR_DATE ( 2023, 12, 2 ) ;
ENDSEC;
END-ISO-10303-21;
