ISO-10303-21;
HEADER;
FILE_DESCRIPTION (( 'STEP AP203' ),
    '1' );
FILE_NAME ('c0e9.STEP',
    '2023-02-12T12:38:35',
    ( '' ),
    ( '' ),
    'SwSTEP 2.0',
    'SolidWorks 2019',
    '' );
FILE_SCHEMA (( 'CONFIG_CONTROL_DESIGN' ));
ENDSEC;

DATA;
#1 = VERTEX_POINT ( 'NONE', #182 ) ;
#2 = MECHANICAL_CONTEXT ( 'NONE', #29, 'mechanical' ) ;
#3 = LOCAL_TIME ( 13, 38, 35.00000000000000000, #151 ) ;
#4 = PERSON_AND_ORGANIZATION ( #40, #98 ) ;
#5 = CARTESIAN_POINT ( 'NONE',  ( 0.000000000000000000, 0.000000000000000000, 0.000000000000000000 ) ) ;
#6 = APPLICATION_PROTOCOL_DEFINITION ( 'international standard', 'config_control_design', 1994, #232 ) ;
#7 = ORIENTED_EDGE ( 'NONE', *, *, #38, .T. ) ;
#8 = APPROVAL_STATUS ( 'not_yet_approved' ) ;
#9 = AXIS2_PLACEMENT_3D ( 'NONE', #53, #207, #34 ) ;
#10 = ORIENTED_EDGE ( 'NONE', *, *, #145, .F. ) ;
#11 = DIRECTION ( 'NONE',  ( 1.000000000000000000, 0.000000000000000000, 0.000000000000000000 ) ) ;
#12 = ADVANCED_FACE ( 'NONE', ( #126 ), #188, .F. ) ;
#13 = FACE_BOUND ( 'NONE', #237, .T. ) ;
#14 = DIRECTION ( 'NONE',  ( -1.000000000000000000, 0.000000000000000000, 0.000000000000000000 ) ) ;
#15 = CIRCLE ( 'NONE', #155, 4.000000000000000000 ) ;
#16 = CARTESIAN_POINT ( 'NONE',  ( -2.000000000000000000, 0.000000000000000000, 500.0000000000000000 ) ) ;
#17 = CARTESIAN_POINT ( 'NONE',  ( 4.000000000000000000, 4.898587196589412829E-16, 3.000000000000000000 ) ) ;
#18 = CC_DESIGN_APPROVAL ( #19, ( #80 ) ) ;
#19 = APPROVAL ( #8, 'NEURÈENÝ' ) ;
#20 = CYLINDRICAL_SURFACE ( 'NONE', #168, 2.000000000000000000 ) ;
#21 = APPROVAL_STATUS ( 'not_yet_approved' ) ;
#22 = VERTEX_POINT ( 'NONE', #214 ) ;
#23 = PERSON_AND_ORGANIZATION ( #40, #98 ) ;
#24 = EDGE_LOOP ( 'NONE', ( #129, #202, #238, #7 ) ) ;
#25 = PRODUCT ( 'c0e9', 'c0e9', '', ( #2 ) ) ;
#26 = EDGE_LOOP ( 'NONE', ( #10, #154, #223, #147 ) ) ;
#27 = PERSON_AND_ORGANIZATION_ROLE ( 'design_supplier' ) ;
#28 = ORIENTED_EDGE ( 'NONE', *, *, #117, .T. ) ;
#29 = APPLICATION_CONTEXT ( 'configuration controlled 3d designs of mechanical parts and assemblies' ) ;
#30 = CC_DESIGN_PERSON_AND_ORGANIZATION_ASSIGNMENT ( #23, #27, ( #32 ) ) ;
#31 = FACE_OUTER_BOUND ( 'NONE', #51, .T. ) ;
#32 = PRODUCT_DEFINITION_FORMATION_WITH_SPECIFIED_SOURCE ( 'LIBOVOLNÝ', '', #25, .NOT_KNOWN. ) ;
#33 = APPROVAL ( #216, 'NEURÈENÝ' ) ;
#34 = DIRECTION ( 'NONE',  ( 1.000000000000000000, 0.000000000000000000, 0.000000000000000000 ) ) ;
#35 = CARTESIAN_POINT ( 'NONE',  ( 0.000000000000000000, 0.000000000000000000, 500.0000000000000000 ) ) ;
#36 = AXIS2_PLACEMENT_3D ( 'NONE', #81, #226, #210 ) ;
#37 = DIRECTION ( 'NONE',  ( -0.000000000000000000, -0.000000000000000000, -1.000000000000000000 ) ) ;
#38 = EDGE_CURVE ( 'NONE', #110, #22, #54, .T. ) ;
#39 = CARTESIAN_POINT ( 'NONE',  ( -2.000000000000000000, 0.000000000000000000, 3.000000000000000000 ) ) ;
#40 = PERSON ( 'NEURÈENÝ', 'NEURÈENÝ', 'NEURÈENÝ', ('NEURÈENÝ'), ('NEURÈENÝ'), ('NEURÈENÝ') ) ;
#41 = DIRECTION ( 'NONE',  ( 1.000000000000000000, 0.000000000000000000, 0.000000000000000000 ) ) ;
#42 = PERSON_AND_ORGANIZATION_ROLE ( 'classification_officer' ) ;
#43 = VERTEX_POINT ( 'NONE', #123 ) ;
#44 = DATE_AND_TIME ( #148, #195 ) ;
#45 = ADVANCED_FACE ( 'NONE', ( #196 ), #20, .T. ) ;
#46 = ORIENTED_EDGE ( 'NONE', *, *, #134, .T. ) ;
#47 = CALENDAR_DATE ( 2023, 12, 2 ) ;
#48 = VECTOR ( 'NONE', #37, 1000.000000000000000 ) ;
#49 = ORIENTED_EDGE ( 'NONE', *, *, #224, .F. ) ;
#50 = COORDINATED_UNIVERSAL_TIME_OFFSET ( 1, 0, .AHEAD. ) ;
#51 = EDGE_LOOP ( 'NONE', ( #92, #68 ) ) ;
#52 = PERSON_AND_ORGANIZATION ( #40, #98 ) ;
#53 = CARTESIAN_POINT ( 'NONE',  ( 0.000000000000000000, 0.000000000000000000, 0.000000000000000000 ) ) ;
#54 = CIRCLE ( 'NONE', #234, 4.000000000000000000 ) ;
#55 = CARTESIAN_POINT ( 'NONE',  ( 0.000000000000000000, 0.000000000000000000, 500.0000000000000000 ) ) ;
#56 =( GEOMETRIC_REPRESENTATION_CONTEXT ( 3 ) GLOBAL_UNCERTAINTY_ASSIGNED_CONTEXT ( ( #144 ) ) GLOBAL_UNIT_ASSIGNED_CONTEXT ( ( #105, #211, #62 ) ) REPRESENTATION_CONTEXT ( 'NONE', 'WORKASPACE' ) );
#57 = DIRECTION ( 'NONE',  ( 0.000000000000000000, 0.000000000000000000, 1.000000000000000000 ) ) ;
#58 = DESIGN_CONTEXT ( 'detailed design', #232, 'design' ) ;
#59 = CYLINDRICAL_SURFACE ( 'NONE', #247, 4.000000000000000000 ) ;
#60 = DIRECTION ( 'NONE',  ( 1.000000000000000000, 0.000000000000000000, 0.000000000000000000 ) ) ;
#61 = CC_DESIGN_SECURITY_CLASSIFICATION ( #170, ( #32 ) ) ;
#62 =( NAMED_UNIT ( * ) SI_UNIT ( $, .STERADIAN. ) SOLID_ANGLE_UNIT ( ) );
#63 = EDGE_CURVE ( 'NONE', #198, #43, #254, .T. ) ;
#64 = EDGE_CURVE ( 'NONE', #111, #110, #209, .T. ) ;
#65 = COORDINATED_UNIVERSAL_TIME_OFFSET ( 1, 0, .AHEAD. ) ;
#66 = DIRECTION ( 'NONE',  ( -0.000000000000000000, -0.000000000000000000, -1.000000000000000000 ) ) ;
#67 = PERSON_AND_ORGANIZATION ( #40, #98 ) ;
#68 = ORIENTED_EDGE ( 'NONE', *, *, #224, .T. ) ;
#69 = DIRECTION ( 'NONE',  ( 0.000000000000000000, 0.000000000000000000, 1.000000000000000000 ) ) ;
#70 = CALENDAR_DATE ( 2023, 12, 2 ) ;
#71 = VECTOR ( 'NONE', #172, 1000.000000000000000 ) ;
#72 = CC_DESIGN_PERSON_AND_ORGANIZATION_ASSIGNMENT ( #52, #203, ( #32 ) ) ;
#73 = ORIENTED_EDGE ( 'NONE', *, *, #145, .T. ) ;
#74 = APPROVAL_PERSON_ORGANIZATION ( #199, #19, #197 ) ;
#75 = APPROVAL_ROLE ( '' ) ;
#76 = DIRECTION ( 'NONE',  ( 0.000000000000000000, 0.000000000000000000, 1.000000000000000000 ) ) ;
#77 = ADVANCED_BREP_SHAPE_REPRESENTATION ( 'c0e9', ( #246, #233 ), #56 ) ;
#78 = LINE ( 'NONE', #158, #215 ) ;
#79 = DIRECTION ( 'NONE',  ( 1.000000000000000000, 0.000000000000000000, 0.000000000000000000 ) ) ;
#80 = PRODUCT_DEFINITION ( 'NEZNÁMÝ', '', #32, #58 ) ;
#81 = CARTESIAN_POINT ( 'NONE',  ( 0.000000000000000000, 0.000000000000000000, 3.000000000000000000 ) ) ;
#82 = CYLINDRICAL_SURFACE ( 'NONE', #130, 4.000000000000000000 ) ;
#83 = AXIS2_PLACEMENT_3D ( 'NONE', #55, #114, #139 ) ;
#84 = LOCAL_TIME ( 13, 38, 35.00000000000000000, #87 ) ;
#85 = EDGE_CURVE ( 'NONE', #93, #1, #244, .T. ) ;
#86 = AXIS2_PLACEMENT_3D ( 'NONE', #140, #99, #208 ) ;
#87 = COORDINATED_UNIVERSAL_TIME_OFFSET ( 1, 0, .AHEAD. ) ;
#88 = CC_DESIGN_PERSON_AND_ORGANIZATION_ASSIGNMENT ( #96, #127, ( #25 ) ) ;
#89 = PRODUCT_DEFINITION_SHAPE ( 'NONE', 'NONE',  #80 ) ;
#90 = CARTESIAN_POINT ( 'NONE',  ( 0.000000000000000000, 0.000000000000000000, 500.0000000000000000 ) ) ;
#91 = CALENDAR_DATE ( 2023, 12, 2 ) ;
#92 = ORIENTED_EDGE ( 'NONE', *, *, #85, .T. ) ;
#93 = VERTEX_POINT ( 'NONE', #16 ) ;
#94 = ADVANCED_FACE ( 'NONE', ( #245 ), #229, .T. ) ;
#95 = ORIENTED_EDGE ( 'NONE', *, *, #63, .F. ) ;
#96 = PERSON_AND_ORGANIZATION ( #40, #98 ) ;
#97 = CARTESIAN_POINT ( 'NONE',  ( 0.000000000000000000, 0.000000000000000000, 0.000000000000000000 ) ) ;
#98 = ORGANIZATION ( 'NEURÈENÝ', 'NEURÈENÝ', '' ) ;
#99 = DIRECTION ( 'NONE',  ( 0.000000000000000000, 0.000000000000000000, 1.000000000000000000 ) ) ;
#100 = DIRECTION ( 'NONE',  ( 1.000000000000000000, 0.000000000000000000, -0.000000000000000000 ) ) ;
#101 = EDGE_CURVE ( 'NONE', #22, #110, #175, .T. ) ;
#102 = FACE_OUTER_BOUND ( 'NONE', #152, .T. ) ;
#103 = AXIS2_PLACEMENT_3D ( 'NONE', #243, #161, #60 ) ;
#104 = DIRECTION ( 'NONE',  ( -0.000000000000000000, -0.000000000000000000, -1.000000000000000000 ) ) ;
#105 =( LENGTH_UNIT ( ) NAMED_UNIT ( * ) SI_UNIT ( .MILLI., .METRE. ) );
#106 = ORIENTED_EDGE ( 'NONE', *, *, #38, .F. ) ;
#107 = APPROVAL_DATE_TIME ( #44, #174 ) ;
#108 = APPROVAL_DATE_TIME ( #169, #19 ) ;
#109 = CC_DESIGN_APPROVAL ( #174, ( #170 ) ) ;
#110 = VERTEX_POINT ( 'NONE', #142 ) ;
#111 = VERTEX_POINT ( 'NONE', #118 ) ;
#112 = DATE_TIME_ROLE ( 'creation_date' ) ;
#113 = CIRCLE ( 'NONE', #36, 4.000000000000000000 ) ;
#114 = DIRECTION ( 'NONE',  ( -0.000000000000000000, -0.000000000000000000, -1.000000000000000000 ) ) ;
#115 = APPROVAL_PERSON_ORGANIZATION ( #124, #33, #75 ) ;
#116 = PLANE ( 'NONE',  #250 ) ;
#117 = EDGE_CURVE ( 'NONE', #239, #111, #113, .T. ) ;
#118 = CARTESIAN_POINT ( 'NONE',  ( -4.000000000000000000, 0.000000000000000000, 3.000000000000000000 ) ) ;
#119 = CARTESIAN_POINT ( 'NONE',  ( 0.000000000000000000, 0.000000000000000000, 3.000000000000000000 ) ) ;
#120 = CC_DESIGN_APPROVAL ( #33, ( #32 ) ) ;
#121 = LINE ( 'NONE', #191, #71 ) ;
#122 = AXIS2_PLACEMENT_3D ( 'NONE', #97, #181, #235 ) ;
#123 = CARTESIAN_POINT ( 'NONE',  ( 2.000000000000000000, 2.449293598294705921E-16, 3.000000000000000000 ) ) ;
#124 = PERSON_AND_ORGANIZATION ( #40, #98 ) ;
#125 = CC_DESIGN_DATE_AND_TIME_ASSIGNMENT ( #132, #112, ( #80 ) ) ;
#126 = FACE_OUTER_BOUND ( 'NONE', #166, .T. ) ;
#127 = PERSON_AND_ORGANIZATION_ROLE ( 'design_owner' ) ;
#128 = PRODUCT_RELATED_PRODUCT_CATEGORY ( 'detail', '', ( #25 ) ) ;
#129 = ORIENTED_EDGE ( 'NONE', *, *, #134, .F. ) ;
#130 = AXIS2_PLACEMENT_3D ( 'NONE', #136, #230, #206 ) ;
#131 = ORIENTED_EDGE ( 'NONE', *, *, #117, .F. ) ;
#132 = DATE_AND_TIME ( #91, #241 ) ;
#133 = ORIENTED_EDGE ( 'NONE', *, *, #179, .F. ) ;
#134 = EDGE_CURVE ( 'NONE', #239, #22, #121, .T. ) ;
#135 = SECURITY_CLASSIFICATION_LEVEL ( 'unclassified' ) ;
#136 = CARTESIAN_POINT ( 'NONE',  ( 0.000000000000000000, 0.000000000000000000, 3.000000000000000000 ) ) ;
#137 = ADVANCED_FACE ( 'NONE', ( #13, #157 ), #116, .T. ) ;
#138 = LOCAL_TIME ( 13, 38, 35.00000000000000000, #205 ) ;
#139 = DIRECTION ( 'NONE',  ( -1.000000000000000000, 0.000000000000000000, 0.000000000000000000 ) ) ;
#140 = CARTESIAN_POINT ( 'NONE',  ( 0.000000000000000000, 0.000000000000000000, 500.0000000000000000 ) ) ;
#141 = CARTESIAN_POINT ( 'NONE',  ( -4.000000000000000000, 0.000000000000000000, 3.000000000000000000 ) ) ;
#142 = CARTESIAN_POINT ( 'NONE',  ( -4.000000000000000000, 0.000000000000000000, 0.000000000000000000 ) ) ;
#143 = ADVANCED_FACE ( 'NONE', ( #102 ), #59, .T. ) ;
#144 = UNCERTAINTY_MEASURE_WITH_UNIT (LENGTH_MEASURE( 1.000000000000000082E-05 ), #105, 'distance_accuracy_value', 'NONE');
#145 = EDGE_CURVE ( 'NONE', #1, #43, #159, .T. ) ;
#146 = ADVANCED_FACE ( 'NONE', ( #177 ), #82, .T. ) ;
#147 = ORIENTED_EDGE ( 'NONE', *, *, #63, .T. ) ;
#148 = CALENDAR_DATE ( 2023, 12, 2 ) ;
#149 = VECTOR ( 'NONE', #160, 1000.000000000000000 ) ;
#150 = DIRECTION ( 'NONE',  ( -1.000000000000000000, 0.000000000000000000, 0.000000000000000000 ) ) ;
#151 = COORDINATED_UNIVERSAL_TIME_OFFSET ( 1, 0, .AHEAD. ) ;
#152 = EDGE_LOOP ( 'NONE', ( #131, #46, #164, #236 ) ) ;
#153 = CARTESIAN_POINT ( 'NONE',  ( 0.000000000000000000, 0.000000000000000000, 0.000000000000000000 ) ) ;
#154 = ORIENTED_EDGE ( 'NONE', *, *, #85, .F. ) ;
#155 = AXIS2_PLACEMENT_3D ( 'NONE', #242, #190, #11 ) ;
#156 = EDGE_LOOP ( 'NONE', ( #204, #28 ) ) ;
#157 = FACE_OUTER_BOUND ( 'NONE', #156, .T. ) ;
#158 = CARTESIAN_POINT ( 'NONE',  ( -2.000000000000000000, 0.000000000000000000, 500.0000000000000000 ) ) ;
#159 = LINE ( 'NONE', #249, #149 ) ;
#160 = DIRECTION ( 'NONE',  ( -0.000000000000000000, -0.000000000000000000, -1.000000000000000000 ) ) ;
#161 = DIRECTION ( 'NONE',  ( 0.000000000000000000, 0.000000000000000000, 1.000000000000000000 ) ) ;
#162 = DATE_AND_TIME ( #47, #84 ) ;
#163 = CLOSED_SHELL ( 'NONE', ( #45, #143, #146, #137, #12, #94, #219 ) ) ;
#164 = ORIENTED_EDGE ( 'NONE', *, *, #101, .T. ) ;
#165 = DATE_TIME_ROLE ( 'classification_date' ) ;
#166 = EDGE_LOOP ( 'NONE', ( #106, #217 ) ) ;
#167 = DIRECTION ( 'NONE',  ( 0.000000000000000000, 0.000000000000000000, 1.000000000000000000 ) ) ;
#168 = AXIS2_PLACEMENT_3D ( 'NONE', #90, #66, #150 ) ;
#169 = DATE_AND_TIME ( #70, #138 ) ;
#170 = SECURITY_CLASSIFICATION ( '', '', #135 ) ;
#171 = CARTESIAN_POINT ( 'NONE',  ( 0.000000000000000000, 0.000000000000000000, 3.000000000000000000 ) ) ;
#172 = DIRECTION ( 'NONE',  ( -0.000000000000000000, -0.000000000000000000, -1.000000000000000000 ) ) ;
#173 = PLANE ( 'NONE',  #86 ) ;
#174 = APPROVAL ( #21, 'NEURÈENÝ' ) ;
#175 = CIRCLE ( 'NONE', #9, 4.000000000000000000 ) ;
#176 = CIRCLE ( 'NONE', #103, 2.000000000000000000 ) ;
#177 = FACE_OUTER_BOUND ( 'NONE', #24, .T. ) ;
#178 = CARTESIAN_POINT ( 'NONE',  ( 0.000000000000000000, 0.000000000000000000, 3.000000000000000000 ) ) ;
#179 = EDGE_CURVE ( 'NONE', #43, #198, #176, .T. ) ;
#180 = APPROVAL_PERSON_ORGANIZATION ( #67, #174, #201 ) ;
#181 = DIRECTION ( 'NONE',  ( 0.000000000000000000, 0.000000000000000000, 1.000000000000000000 ) ) ;
#182 = CARTESIAN_POINT ( 'NONE',  ( 2.000000000000000000, 2.449293598294705921E-16, 500.0000000000000000 ) ) ;
#183 = DATE_AND_TIME ( #185, #3 ) ;
#184 = EDGE_LOOP ( 'NONE', ( #49, #73, #200, #220 ) ) ;
#185 = CALENDAR_DATE ( 2023, 12, 2 ) ;
#186 = APPLICATION_PROTOCOL_DEFINITION ( 'international standard', 'config_control_design', 1994, #29 ) ;
#187 = AXIS2_PLACEMENT_3D ( 'NONE', #119, #76, #248 ) ;
#188 = PLANE ( 'NONE',  #122 ) ;
#189 = PERSON_AND_ORGANIZATION_ROLE ( 'creator' ) ;
#190 = DIRECTION ( 'NONE',  ( 0.000000000000000000, 0.000000000000000000, 1.000000000000000000 ) ) ;
#191 = CARTESIAN_POINT ( 'NONE',  ( 4.000000000000000000, 4.898587196589412829E-16, 3.000000000000000000 ) ) ;
#192 = DIRECTION ( 'NONE',  ( 0.000000000000000000, 0.000000000000000000, 1.000000000000000000 ) ) ;
#193 = CARTESIAN_POINT ( 'NONE',  ( 0.000000000000000000, 0.000000000000000000, 500.0000000000000000 ) ) ;
#194 = DIRECTION ( 'NONE',  ( 1.000000000000000000, 0.000000000000000000, 0.000000000000000000 ) ) ;
#195 = LOCAL_TIME ( 13, 38, 35.00000000000000000, #65 ) ;
#196 = FACE_OUTER_BOUND ( 'NONE', #184, .T. ) ;
#197 = APPROVAL_ROLE ( '' ) ;
#198 = VERTEX_POINT ( 'NONE', #39 ) ;
#199 = PERSON_AND_ORGANIZATION ( #40, #98 ) ;
#200 = ORIENTED_EDGE ( 'NONE', *, *, #179, .T. ) ;
#201 = APPROVAL_ROLE ( '' ) ;
#202 = ORIENTED_EDGE ( 'NONE', *, *, #251, .F. ) ;
#203 = PERSON_AND_ORGANIZATION_ROLE ( 'creator' ) ;
#204 = ORIENTED_EDGE ( 'NONE', *, *, #251, .T. ) ;
#205 = COORDINATED_UNIVERSAL_TIME_OFFSET ( 1, 0, .AHEAD. ) ;
#206 = DIRECTION ( 'NONE',  ( -1.000000000000000000, 0.000000000000000000, 0.000000000000000000 ) ) ;
#207 = DIRECTION ( 'NONE',  ( 0.000000000000000000, 0.000000000000000000, 1.000000000000000000 ) ) ;
#208 = DIRECTION ( 'NONE',  ( 1.000000000000000000, 0.000000000000000000, -0.000000000000000000 ) ) ;
#209 = LINE ( 'NONE', #141, #48 ) ;
#210 = DIRECTION ( 'NONE',  ( 1.000000000000000000, 0.000000000000000000, 0.000000000000000000 ) ) ;
#211 =( NAMED_UNIT ( * ) PLANE_ANGLE_UNIT ( ) SI_UNIT ( $, .RADIAN. ) );
#212 = CC_DESIGN_DATE_AND_TIME_ASSIGNMENT ( #162, #165, ( #170 ) ) ;
#213 = CIRCLE ( 'NONE', #255, 2.000000000000000000 ) ;
#214 = CARTESIAN_POINT ( 'NONE',  ( 4.000000000000000000, 4.898587196589412829E-16, 0.000000000000000000 ) ) ;
#215 = VECTOR ( 'NONE', #227, 1000.000000000000000 ) ;
#216 = APPROVAL_STATUS ( 'not_yet_approved' ) ;
#217 = ORIENTED_EDGE ( 'NONE', *, *, #101, .F. ) ;
#218 = SHAPE_DEFINITION_REPRESENTATION ( #89, #77 ) ;
#219 = ADVANCED_FACE ( 'NONE', ( #31 ), #173, .T. ) ;
#220 = ORIENTED_EDGE ( 'NONE', *, *, #253, .F. ) ;
#221 = DIRECTION ( 'NONE',  ( 1.000000000000000000, 0.000000000000000000, 0.000000000000000000 ) ) ;
#222 = AXIS2_PLACEMENT_3D ( 'NONE', #193, #231, #79 ) ;
#223 = ORIENTED_EDGE ( 'NONE', *, *, #253, .T. ) ;
#224 = EDGE_CURVE ( 'NONE', #1, #93, #213, .T. ) ;
#225 = APPROVAL_DATE_TIME ( #183, #33 ) ;
#226 = DIRECTION ( 'NONE',  ( 0.000000000000000000, 0.000000000000000000, 1.000000000000000000 ) ) ;
#227 = DIRECTION ( 'NONE',  ( -0.000000000000000000, -0.000000000000000000, -1.000000000000000000 ) ) ;
#228 = CC_DESIGN_PERSON_AND_ORGANIZATION_ASSIGNMENT ( #240, #189, ( #80 ) ) ;
#229 = CYLINDRICAL_SURFACE ( 'NONE', #83, 2.000000000000000000 ) ;
#230 = DIRECTION ( 'NONE',  ( -0.000000000000000000, -0.000000000000000000, -1.000000000000000000 ) ) ;
#231 = DIRECTION ( 'NONE',  ( 0.000000000000000000, 0.000000000000000000, 1.000000000000000000 ) ) ;
#232 = APPLICATION_CONTEXT ( 'configuration controlled 3d designs of mechanical parts and assemblies' ) ;
#233 = AXIS2_PLACEMENT_3D ( 'NONE', #153, #167, #221 ) ;
#234 = AXIS2_PLACEMENT_3D ( 'NONE', #5, #69, #41 ) ;
#235 = DIRECTION ( 'NONE',  ( 1.000000000000000000, 0.000000000000000000, -0.000000000000000000 ) ) ;
#236 = ORIENTED_EDGE ( 'NONE', *, *, #64, .F. ) ;
#237 = EDGE_LOOP ( 'NONE', ( #95, #133 ) ) ;
#238 = ORIENTED_EDGE ( 'NONE', *, *, #64, .T. ) ;
#239 = VERTEX_POINT ( 'NONE', #17 ) ;
#240 = PERSON_AND_ORGANIZATION ( #40, #98 ) ;
#241 = LOCAL_TIME ( 13, 38, 35.00000000000000000, #50 ) ;
#242 = CARTESIAN_POINT ( 'NONE',  ( 0.000000000000000000, 0.000000000000000000, 3.000000000000000000 ) ) ;
#243 = CARTESIAN_POINT ( 'NONE',  ( 0.000000000000000000, 0.000000000000000000, 3.000000000000000000 ) ) ;
#244 = CIRCLE ( 'NONE', #222, 2.000000000000000000 ) ;
#245 = FACE_OUTER_BOUND ( 'NONE', #26, .T. ) ;
#246 = MANIFOLD_SOLID_BREP ( 'Pøidat vysunutím3', #163 ) ;
#247 = AXIS2_PLACEMENT_3D ( 'NONE', #178, #104, #14 ) ;
#248 = DIRECTION ( 'NONE',  ( 1.000000000000000000, 0.000000000000000000, 0.000000000000000000 ) ) ;
#249 = CARTESIAN_POINT ( 'NONE',  ( 2.000000000000000000, 2.449293598294705921E-16, 500.0000000000000000 ) ) ;
#250 = AXIS2_PLACEMENT_3D ( 'NONE', #171, #57, #100 ) ;
#251 = EDGE_CURVE ( 'NONE', #111, #239, #15, .T. ) ;
#252 = CC_DESIGN_PERSON_AND_ORGANIZATION_ASSIGNMENT ( #4, #42, ( #170 ) ) ;
#253 = EDGE_CURVE ( 'NONE', #93, #198, #78, .T. ) ;
#254 = CIRCLE ( 'NONE', #187, 2.000000000000000000 ) ;
#255 = AXIS2_PLACEMENT_3D ( 'NONE', #35, #192, #194 ) ;
ENDSEC;
END-ISO-10303-21;
