ISO-10303-21;
HEADER;
FILE_DESCRIPTION (( 'STEP AP203' ),
    '1' );
FILE_NAME ('9818.STEP',
    '2023-02-12T11:59:26',
    ( '' ),
    ( '' ),
    'SwSTEP 2.0',
    'SolidWorks 2019',
    '' );
FILE_SCHEMA (( 'CONFIG_CONTROL_DESIGN' ));
ENDSEC;

DATA;
#1 = LOCAL_TIME ( 12, 59, 26.00000000000000000, #136 ) ;
#2 = EDGE_LOOP ( 'NONE', ( #134, #247 ) ) ;
#3 = CIRCLE ( 'NONE', #255, 3.500000000000000000 ) ;
#4 = DIRECTION ( 'NONE',  ( -1.000000000000000000, 0.000000000000000000, 0.000000000000000000 ) ) ;
#5 = PERSON_AND_ORGANIZATION ( #125, #168 ) ;
#6 = DIRECTION ( 'NONE',  ( 1.000000000000000000, 0.000000000000000000, -0.000000000000000000 ) ) ;
#7 = CARTESIAN_POINT ( 'NONE',  ( 6.000000000000000888, 7.347880794884120722E-16, 5.000000000000000000 ) ) ;
#8 = COORDINATED_UNIVERSAL_TIME_OFFSET ( 1, 0, .AHEAD. ) ;
#9 = CARTESIAN_POINT ( 'NONE',  ( 3.500000000000000000, 4.286263797015736595E-16, 250.0000000000000000 ) ) ;
#10 = APPROVAL_STATUS ( 'not_yet_approved' ) ;
#11 = FACE_BOUND ( 'NONE', #52, .T. ) ;
#12 = ORIENTED_EDGE ( 'NONE', *, *, #77, .F. ) ;
#13 = DIRECTION ( 'NONE',  ( -1.000000000000000000, 0.000000000000000000, 0.000000000000000000 ) ) ;
#14 = ADVANCED_FACE ( 'NONE', ( #11, #98 ), #43, .T. ) ;
#15 = DESIGN_CONTEXT ( 'detailed design', #207, 'design' ) ;
#16 = APPROVAL ( #243, 'NEURÈENÝ' ) ;
#17 = AXIS2_PLACEMENT_3D ( 'NONE', #141, #63, #223 ) ;
#18 = CC_DESIGN_PERSON_AND_ORGANIZATION_ASSIGNMENT ( #26, #64, ( #183 ) ) ;
#19 = AXIS2_PLACEMENT_3D ( 'NONE', #178, #249, #6 ) ;
#20 = ADVANCED_FACE ( 'NONE', ( #152 ), #57, .T. ) ;
#21 = ADVANCED_FACE ( 'NONE', ( #155 ), #174, .F. ) ;
#22 = ORIENTED_EDGE ( 'NONE', *, *, #209, .T. ) ;
#23 = APPROVAL_DATE_TIME ( #179, #55 ) ;
#24 = CARTESIAN_POINT ( 'NONE',  ( 3.500000000000000000, 4.286263797015736595E-16, 5.000000000000000000 ) ) ;
#25 = ORIENTED_EDGE ( 'NONE', *, *, #213, .F. ) ;
#26 = PERSON_AND_ORGANIZATION ( #125, #168 ) ;
#27 = VERTEX_POINT ( 'NONE', #56 ) ;
#28 = CARTESIAN_POINT ( 'NONE',  ( 0.000000000000000000, 0.000000000000000000, 0.000000000000000000 ) ) ;
#29 = DIRECTION ( 'NONE',  ( 1.000000000000000000, 0.000000000000000000, -0.000000000000000000 ) ) ;
#30 = APPROVAL_ROLE ( '' ) ;
#31 = ORIENTED_EDGE ( 'NONE', *, *, #213, .T. ) ;
#32 = DIRECTION ( 'NONE',  ( 0.000000000000000000, 0.000000000000000000, 1.000000000000000000 ) ) ;
#33 = EDGE_CURVE ( 'NONE', #118, #139, #222, .T. ) ;
#34 = AXIS2_PLACEMENT_3D ( 'NONE', #216, #32, #162 ) ;
#35 = AXIS2_PLACEMENT_3D ( 'NONE', #241, #137, #120 ) ;
#36 = EDGE_CURVE ( 'NONE', #139, #27, #219, .T. ) ;
#37 = AXIS2_PLACEMENT_3D ( 'NONE', #244, #193, #65 ) ;
#38 = EDGE_LOOP ( 'NONE', ( #25, #167, #210, #66 ) ) ;
#39 = ORIENTED_EDGE ( 'NONE', *, *, #127, .F. ) ;
#40 = VERTEX_POINT ( 'NONE', #100 ) ;
#41 = PERSON_AND_ORGANIZATION ( #125, #168 ) ;
#42 = VECTOR ( 'NONE', #117, 1000.000000000000000 ) ;
#43 = PLANE ( 'NONE',  #19 ) ;
#44 = DIRECTION ( 'NONE',  ( -0.000000000000000000, -0.000000000000000000, -1.000000000000000000 ) ) ;
#45 = CARTESIAN_POINT ( 'NONE',  ( -3.500000000000000000, 0.000000000000000000, 250.0000000000000000 ) ) ;
#46 = LOCAL_TIME ( 12, 59, 26.00000000000000000, #151 ) ;
#47 = PERSON_AND_ORGANIZATION_ROLE ( 'creator' ) ;
#48 = EDGE_LOOP ( 'NONE', ( #122, #31, #191, #235 ) ) ;
#49 = DIRECTION ( 'NONE',  ( 0.000000000000000000, 0.000000000000000000, 1.000000000000000000 ) ) ;
#50 = DIRECTION ( 'NONE',  ( -0.000000000000000000, -0.000000000000000000, -1.000000000000000000 ) ) ;
#51 = EDGE_CURVE ( 'NONE', #139, #118, #147, .T. ) ;
#52 = EDGE_LOOP ( 'NONE', ( #145, #39 ) ) ;
#53 = ORIENTED_EDGE ( 'NONE', *, *, #51, .T. ) ;
#54 = CALENDAR_DATE ( 2023, 12, 2 ) ;
#55 = APPROVAL ( #10, 'NEURÈENÝ' ) ;
#56 = CARTESIAN_POINT ( 'NONE',  ( -3.500000000000000000, 0.000000000000000000, 5.000000000000000000 ) ) ;
#57 = CYLINDRICAL_SURFACE ( 'NONE', #231, 6.000000000000000888 ) ;
#58 = CALENDAR_DATE ( 2023, 12, 2 ) ;
#59 = CARTESIAN_POINT ( 'NONE',  ( 0.000000000000000000, 0.000000000000000000, 5.000000000000000000 ) ) ;
#60 = CC_DESIGN_PERSON_AND_ORGANIZATION_ASSIGNMENT ( #196, #240, ( #180 ) ) ;
#61 = VERTEX_POINT ( 'NONE', #102 ) ;
#62 = APPROVAL_ROLE ( '' ) ;
#63 = DIRECTION ( 'NONE',  ( 0.000000000000000000, 0.000000000000000000, 1.000000000000000000 ) ) ;
#64 = PERSON_AND_ORGANIZATION_ROLE ( 'classification_officer' ) ;
#65 = DIRECTION ( 'NONE',  ( 1.000000000000000000, 0.000000000000000000, 0.000000000000000000 ) ) ;
#66 = ORIENTED_EDGE ( 'NONE', *, *, #109, .T. ) ;
#67 = ADVANCED_FACE ( 'NONE', ( #225 ), #129, .T. ) ;
#68 = CARTESIAN_POINT ( 'NONE',  ( -6.000000000000000888, 0.000000000000000000, 5.000000000000000000 ) ) ;
#69 = PRODUCT_RELATED_PRODUCT_CATEGORY ( 'detail', '', ( #132 ) ) ;
#70 = APPROVAL_PERSON_ORGANIZATION ( #5, #115, #30 ) ;
#71 = DIRECTION ( 'NONE',  ( 1.000000000000000000, 0.000000000000000000, 0.000000000000000000 ) ) ;
#72 = AXIS2_PLACEMENT_3D ( 'NONE', #79, #214, #93 ) ;
#73 = LOCAL_TIME ( 12, 59, 26.00000000000000000, #8 ) ;
#74 = AXIS2_PLACEMENT_3D ( 'NONE', #201, #172, #4 ) ;
#75 = ORIENTED_EDGE ( 'NONE', *, *, #77, .T. ) ;
#76 = CC_DESIGN_APPROVAL ( #115, ( #183 ) ) ;
#77 = EDGE_CURVE ( 'NONE', #61, #40, #182, .T. ) ;
#78 = APPROVAL_DATE_TIME ( #90, #115 ) ;
#79 = CARTESIAN_POINT ( 'NONE',  ( 0.000000000000000000, 0.000000000000000000, 0.000000000000000000 ) ) ;
#80 = CALENDAR_DATE ( 2023, 12, 2 ) ;
#81 = ADVANCED_BREP_SHAPE_REPRESENTATION ( '9818', ( #234, #229 ), #95 ) ;
#82 = CARTESIAN_POINT ( 'NONE',  ( 6.000000000000000888, 7.347880794884120722E-16, 5.000000000000000000 ) ) ;
#83 = DIRECTION ( 'NONE',  ( -1.000000000000000000, 0.000000000000000000, 0.000000000000000000 ) ) ;
#84 = APPROVAL_ROLE ( '' ) ;
#85 = CYLINDRICAL_SURFACE ( 'NONE', #35, 6.000000000000000888 ) ;
#86 = DIRECTION ( 'NONE',  ( 0.000000000000000000, 0.000000000000000000, 1.000000000000000000 ) ) ;
#87 = SHAPE_DEFINITION_REPRESENTATION ( #248, #81 ) ;
#88 = CYLINDRICAL_SURFACE ( 'NONE', #204, 3.500000000000000000 ) ;
#89 = DIRECTION ( 'NONE',  ( 1.000000000000000000, 0.000000000000000000, 0.000000000000000000 ) ) ;
#90 = DATE_AND_TIME ( #80, #73 ) ;
#91 = FACE_OUTER_BOUND ( 'NONE', #38, .T. ) ;
#92 = APPROVAL_PERSON_ORGANIZATION ( #41, #55, #62 ) ;
#93 = DIRECTION ( 'NONE',  ( 1.000000000000000000, 0.000000000000000000, 0.000000000000000000 ) ) ;
#94 = ORIENTED_EDGE ( 'NONE', *, *, #232, .F. ) ;
#95 =( GEOMETRIC_REPRESENTATION_CONTEXT ( 3 ) GLOBAL_UNCERTAINTY_ASSIGNED_CONTEXT ( ( #218 ) ) GLOBAL_UNIT_ASSIGNED_CONTEXT ( ( #230, #110, #184 ) ) REPRESENTATION_CONTEXT ( 'NONE', 'WORKASPACE' ) );
#96 = COORDINATED_UNIVERSAL_TIME_OFFSET ( 1, 0, .AHEAD. ) ;
#97 = CARTESIAN_POINT ( 'NONE',  ( 0.000000000000000000, 0.000000000000000000, 0.000000000000000000 ) ) ;
#98 = FACE_OUTER_BOUND ( 'NONE', #2, .T. ) ;
#99 = DATE_AND_TIME ( #58, #111 ) ;
#100 = CARTESIAN_POINT ( 'NONE',  ( 6.000000000000000888, 7.347880794884120722E-16, 0.000000000000000000 ) ) ;
#101 = PERSON_AND_ORGANIZATION_ROLE ( 'design_owner' ) ;
#102 = CARTESIAN_POINT ( 'NONE',  ( -6.000000000000000888, 0.000000000000000000, 0.000000000000000000 ) ) ;
#103 = ORIENTED_EDGE ( 'NONE', *, *, #232, .T. ) ;
#104 = DIRECTION ( 'NONE',  ( 0.000000000000000000, 0.000000000000000000, 1.000000000000000000 ) ) ;
#105 = PRODUCT_DEFINITION ( 'NEZNÁMÝ', '', #180, #15 ) ;
#106 = DIRECTION ( 'NONE',  ( 1.000000000000000000, 0.000000000000000000, 0.000000000000000000 ) ) ;
#107 = CC_DESIGN_PERSON_AND_ORGANIZATION_ASSIGNMENT ( #177, #47, ( #105 ) ) ;
#108 = VECTOR ( 'NONE', #251, 1000.000000000000000 ) ;
#109 = EDGE_CURVE ( 'NONE', #27, #170, #3, .T. ) ;
#110 =( NAMED_UNIT ( * ) PLANE_ANGLE_UNIT ( ) SI_UNIT ( $, .RADIAN. ) );
#111 = LOCAL_TIME ( 12, 59, 26.00000000000000000, #123 ) ;
#112 = CC_DESIGN_DATE_AND_TIME_ASSIGNMENT ( #99, #192, ( #183 ) ) ;
#113 = ORIENTED_EDGE ( 'NONE', *, *, #226, .F. ) ;
#114 = PERSON_AND_ORGANIZATION_ROLE ( 'design_supplier' ) ;
#115 = APPROVAL ( #142, 'NEURÈENÝ' ) ;
#116 = PERSON_AND_ORGANIZATION ( #125, #168 ) ;
#117 = DIRECTION ( 'NONE',  ( -0.000000000000000000, -0.000000000000000000, -1.000000000000000000 ) ) ;
#118 = VERTEX_POINT ( 'NONE', #202 ) ;
#119 = MECHANICAL_CONTEXT ( 'NONE', #171, 'mechanical' ) ;
#120 = DIRECTION ( 'NONE',  ( -1.000000000000000000, 0.000000000000000000, 0.000000000000000000 ) ) ;
#121 = AXIS2_PLACEMENT_3D ( 'NONE', #245, #138, #89 ) ;
#122 = ORIENTED_EDGE ( 'NONE', *, *, #33, .F. ) ;
#123 = COORDINATED_UNIVERSAL_TIME_OFFSET ( 1, 0, .AHEAD. ) ;
#124 = CARTESIAN_POINT ( 'NONE',  ( 0.000000000000000000, 0.000000000000000000, 250.0000000000000000 ) ) ;
#125 = PERSON ( 'NEURÈENÝ', 'NEURÈENÝ', 'NEURÈENÝ', ('NEURÈENÝ'), ('NEURÈENÝ'), ('NEURÈENÝ') ) ;
#126 = PERSON_AND_ORGANIZATION ( #125, #168 ) ;
#127 = EDGE_CURVE ( 'NONE', #170, #27, #140, .T. ) ;
#128 = DIRECTION ( 'NONE',  ( 1.000000000000000000, 0.000000000000000000, 0.000000000000000000 ) ) ;
#129 = CYLINDRICAL_SURFACE ( 'NONE', #74, 3.500000000000000000 ) ;
#130 = DIRECTION ( 'NONE',  ( 0.000000000000000000, 0.000000000000000000, 1.000000000000000000 ) ) ;
#131 = LOCAL_TIME ( 12, 59, 26.00000000000000000, #96 ) ;
#132 = PRODUCT ( '9818', '9818', '', ( #119 ) ) ;
#133 = ORIENTED_EDGE ( 'NONE', *, *, #33, .T. ) ;
#134 = ORIENTED_EDGE ( 'NONE', *, *, #236, .T. ) ;
#135 = CC_DESIGN_PERSON_AND_ORGANIZATION_ASSIGNMENT ( #116, #114, ( #180 ) ) ;
#136 = COORDINATED_UNIVERSAL_TIME_OFFSET ( 1, 0, .AHEAD. ) ;
#137 = DIRECTION ( 'NONE',  ( -0.000000000000000000, -0.000000000000000000, -1.000000000000000000 ) ) ;
#138 = DIRECTION ( 'NONE',  ( 0.000000000000000000, 0.000000000000000000, 1.000000000000000000 ) ) ;
#139 = VERTEX_POINT ( 'NONE', #45 ) ;
#140 = CIRCLE ( 'NONE', #37, 3.500000000000000000 ) ;
#141 = CARTESIAN_POINT ( 'NONE',  ( 0.000000000000000000, 0.000000000000000000, 250.0000000000000000 ) ) ;
#142 = APPROVAL_STATUS ( 'not_yet_approved' ) ;
#143 = CC_DESIGN_SECURITY_CLASSIFICATION ( #183, ( #180 ) ) ;
#144 = LINE ( 'NONE', #7, #189 ) ;
#145 = ORIENTED_EDGE ( 'NONE', *, *, #109, .F. ) ;
#146 = DIRECTION ( 'NONE',  ( -0.000000000000000000, -0.000000000000000000, -1.000000000000000000 ) ) ;
#147 = CIRCLE ( 'NONE', #17, 3.500000000000000000 ) ;
#148 = CC_DESIGN_PERSON_AND_ORGANIZATION_ASSIGNMENT ( #215, #101, ( #132 ) ) ;
#149 = AXIS2_PLACEMENT_3D ( 'NONE', #97, #104, #200 ) ;
#150 = ORIENTED_EDGE ( 'NONE', *, *, #236, .F. ) ;
#151 = COORDINATED_UNIVERSAL_TIME_OFFSET ( 1, 0, .AHEAD. ) ;
#152 = FACE_OUTER_BOUND ( 'NONE', #206, .T. ) ;
#153 = DATE_AND_TIME ( #157, #46 ) ;
#154 = FACE_OUTER_BOUND ( 'NONE', #208, .T. ) ;
#155 = FACE_OUTER_BOUND ( 'NONE', #221, .T. ) ;
#156 = CIRCLE ( 'NONE', #149, 6.000000000000000888 ) ;
#157 = CALENDAR_DATE ( 2023, 12, 2 ) ;
#158 = DIRECTION ( 'NONE',  ( -0.000000000000000000, -0.000000000000000000, -1.000000000000000000 ) ) ;
#159 = CARTESIAN_POINT ( 'NONE',  ( 0.000000000000000000, 0.000000000000000000, 0.000000000000000000 ) ) ;
#160 = CARTESIAN_POINT ( 'NONE',  ( -6.000000000000000888, 0.000000000000000000, 5.000000000000000000 ) ) ;
#161 = SECURITY_CLASSIFICATION_LEVEL ( 'unclassified' ) ;
#162 = DIRECTION ( 'NONE',  ( 1.000000000000000000, 0.000000000000000000, -0.000000000000000000 ) ) ;
#163 = CARTESIAN_POINT ( 'NONE',  ( -3.500000000000000000, 0.000000000000000000, 250.0000000000000000 ) ) ;
#164 = FACE_OUTER_BOUND ( 'NONE', #195, .T. ) ;
#165 = VECTOR ( 'NONE', #146, 1000.000000000000000 ) ;
#166 = CARTESIAN_POINT ( 'NONE',  ( 0.000000000000000000, 0.000000000000000000, 5.000000000000000000 ) ) ;
#167 = ORIENTED_EDGE ( 'NONE', *, *, #51, .F. ) ;
#168 = ORGANIZATION ( 'NEURÈENÝ', 'NEURÈENÝ', '' ) ;
#169 = CIRCLE ( 'NONE', #242, 6.000000000000000888 ) ;
#170 = VERTEX_POINT ( 'NONE', #24 ) ;
#171 = APPLICATION_CONTEXT ( 'configuration controlled 3d designs of mechanical parts and assemblies' ) ;
#172 = DIRECTION ( 'NONE',  ( -0.000000000000000000, -0.000000000000000000, -1.000000000000000000 ) ) ;
#173 = APPLICATION_PROTOCOL_DEFINITION ( 'international standard', 'config_control_design', 1994, #207 ) ;
#174 = PLANE ( 'NONE',  #233 ) ;
#175 = CC_DESIGN_APPROVAL ( #16, ( #105 ) ) ;
#176 = APPROVAL_DATE_TIME ( #153, #16 ) ;
#177 = PERSON_AND_ORGANIZATION ( #125, #168 ) ;
#178 = CARTESIAN_POINT ( 'NONE',  ( 0.000000000000000000, 0.000000000000000000, 5.000000000000000000 ) ) ;
#179 = DATE_AND_TIME ( #54, #131 ) ;
#180 = PRODUCT_DEFINITION_FORMATION_WITH_SPECIFIED_SOURCE ( 'LIBOVOLNÝ', '', #132, .NOT_KNOWN. ) ;
#181 = ADVANCED_FACE ( 'NONE', ( #91 ), #88, .T. ) ;
#182 = CIRCLE ( 'NONE', #72, 6.000000000000000888 ) ;
#183 = SECURITY_CLASSIFICATION ( '', '', #161 ) ;
#184 =( NAMED_UNIT ( * ) SI_UNIT ( $, .STERADIAN. ) SOLID_ANGLE_UNIT ( ) );
#185 = ORIENTED_EDGE ( 'NONE', *, *, #228, .F. ) ;
#186 = CIRCLE ( 'NONE', #190, 6.000000000000000888 ) ;
#187 = VERTEX_POINT ( 'NONE', #68 ) ;
#188 = ORIENTED_EDGE ( 'NONE', *, *, #209, .F. ) ;
#189 = VECTOR ( 'NONE', #158, 1000.000000000000000 ) ;
#190 = AXIS2_PLACEMENT_3D ( 'NONE', #227, #130, #106 ) ;
#191 = ORIENTED_EDGE ( 'NONE', *, *, #127, .T. ) ;
#192 = DATE_TIME_ROLE ( 'classification_date' ) ;
#193 = DIRECTION ( 'NONE',  ( 0.000000000000000000, 0.000000000000000000, 1.000000000000000000 ) ) ;
#194 = CLOSED_SHELL ( 'NONE', ( #67, #239, #20, #14, #21, #181, #205 ) ) ;
#195 = EDGE_LOOP ( 'NONE', ( #53, #133 ) ) ;
#196 = PERSON_AND_ORGANIZATION ( #125, #168 ) ;
#197 = PLANE ( 'NONE',  #34 ) ;
#198 = ORIENTED_EDGE ( 'NONE', *, *, #228, .T. ) ;
#199 = CALENDAR_DATE ( 2023, 12, 2 ) ;
#200 = DIRECTION ( 'NONE',  ( 1.000000000000000000, 0.000000000000000000, 0.000000000000000000 ) ) ;
#201 = CARTESIAN_POINT ( 'NONE',  ( 0.000000000000000000, 0.000000000000000000, 250.0000000000000000 ) ) ;
#202 = CARTESIAN_POINT ( 'NONE',  ( 3.500000000000000000, 4.286263797015736595E-16, 250.0000000000000000 ) ) ;
#203 = CC_DESIGN_APPROVAL ( #55, ( #180 ) ) ;
#204 = AXIS2_PLACEMENT_3D ( 'NONE', #124, #44, #13 ) ;
#205 = ADVANCED_FACE ( 'NONE', ( #164 ), #197, .T. ) ;
#206 = EDGE_LOOP ( 'NONE', ( #188, #150, #103, #75 ) ) ;
#207 = APPLICATION_CONTEXT ( 'configuration controlled 3d designs of mechanical parts and assemblies' ) ;
#208 = EDGE_LOOP ( 'NONE', ( #113, #22, #198, #94 ) ) ;
#209 = EDGE_CURVE ( 'NONE', #237, #40, #144, .T. ) ;
#210 = ORIENTED_EDGE ( 'NONE', *, *, #36, .T. ) ;
#211 = CC_DESIGN_DATE_AND_TIME_ASSIGNMENT ( #250, #246, ( #105 ) ) ;
#212 = DIRECTION ( 'NONE',  ( 0.000000000000000000, 0.000000000000000000, 1.000000000000000000 ) ) ;
#213 = EDGE_CURVE ( 'NONE', #118, #170, #224, .T. ) ;
#214 = DIRECTION ( 'NONE',  ( 0.000000000000000000, 0.000000000000000000, 1.000000000000000000 ) ) ;
#215 = PERSON_AND_ORGANIZATION ( #125, #168 ) ;
#216 = CARTESIAN_POINT ( 'NONE',  ( 0.000000000000000000, 0.000000000000000000, 250.0000000000000000 ) ) ;
#217 = CARTESIAN_POINT ( 'NONE',  ( 0.000000000000000000, 0.000000000000000000, 5.000000000000000000 ) ) ;
#218 = UNCERTAINTY_MEASURE_WITH_UNIT (LENGTH_MEASURE( 1.000000000000000082E-05 ), #230, 'distance_accuracy_value', 'NONE');
#219 = LINE ( 'NONE', #163, #108 ) ;
#220 = DIRECTION ( 'NONE',  ( 1.000000000000000000, 0.000000000000000000, 0.000000000000000000 ) ) ;
#221 = EDGE_LOOP ( 'NONE', ( #12, #185 ) ) ;
#222 = CIRCLE ( 'NONE', #121, 3.500000000000000000 ) ;
#223 = DIRECTION ( 'NONE',  ( 1.000000000000000000, 0.000000000000000000, 0.000000000000000000 ) ) ;
#224 = LINE ( 'NONE', #9, #42 ) ;
#225 = FACE_OUTER_BOUND ( 'NONE', #48, .T. ) ;
#226 = EDGE_CURVE ( 'NONE', #237, #187, #169, .T. ) ;
#227 = CARTESIAN_POINT ( 'NONE',  ( 0.000000000000000000, 0.000000000000000000, 5.000000000000000000 ) ) ;
#228 = EDGE_CURVE ( 'NONE', #40, #61, #156, .T. ) ;
#229 = AXIS2_PLACEMENT_3D ( 'NONE', #28, #212, #220 ) ;
#230 =( LENGTH_UNIT ( ) NAMED_UNIT ( * ) SI_UNIT ( .MILLI., .METRE. ) );
#231 = AXIS2_PLACEMENT_3D ( 'NONE', #217, #50, #83 ) ;
#232 = EDGE_CURVE ( 'NONE', #187, #61, #253, .T. ) ;
#233 = AXIS2_PLACEMENT_3D ( 'NONE', #159, #86, #29 ) ;
#234 = MANIFOLD_SOLID_BREP ( 'Pøidat vysunutím3', #194 ) ;
#235 = ORIENTED_EDGE ( 'NONE', *, *, #36, .F. ) ;
#236 = EDGE_CURVE ( 'NONE', #187, #237, #186, .T. ) ;
#237 = VERTEX_POINT ( 'NONE', #82 ) ;
#238 = APPLICATION_PROTOCOL_DEFINITION ( 'international standard', 'config_control_design', 1994, #171 ) ;
#239 = ADVANCED_FACE ( 'NONE', ( #154 ), #85, .T. ) ;
#240 = PERSON_AND_ORGANIZATION_ROLE ( 'creator' ) ;
#241 = CARTESIAN_POINT ( 'NONE',  ( 0.000000000000000000, 0.000000000000000000, 5.000000000000000000 ) ) ;
#242 = AXIS2_PLACEMENT_3D ( 'NONE', #59, #49, #128 ) ;
#243 = APPROVAL_STATUS ( 'not_yet_approved' ) ;
#244 = CARTESIAN_POINT ( 'NONE',  ( 0.000000000000000000, 0.000000000000000000, 5.000000000000000000 ) ) ;
#245 = CARTESIAN_POINT ( 'NONE',  ( 0.000000000000000000, 0.000000000000000000, 250.0000000000000000 ) ) ;
#246 = DATE_TIME_ROLE ( 'creation_date' ) ;
#247 = ORIENTED_EDGE ( 'NONE', *, *, #226, .T. ) ;
#248 = PRODUCT_DEFINITION_SHAPE ( 'NONE', 'NONE',  #105 ) ;
#249 = DIRECTION ( 'NONE',  ( 0.000000000000000000, 0.000000000000000000, 1.000000000000000000 ) ) ;
#250 = DATE_AND_TIME ( #199, #1 ) ;
#251 = DIRECTION ( 'NONE',  ( -0.000000000000000000, -0.000000000000000000, -1.000000000000000000 ) ) ;
#252 = APPROVAL_PERSON_ORGANIZATION ( #126, #16, #84 ) ;
#253 = LINE ( 'NONE', #160, #165 ) ;
#254 = DIRECTION ( 'NONE',  ( 0.000000000000000000, 0.000000000000000000, 1.000000000000000000 ) ) ;
#255 = AXIS2_PLACEMENT_3D ( 'NONE', #166, #254, #71 ) ;
ENDSEC;
END-ISO-10303-21;
