ISO-10303-21;
HEADER;
FILE_DESCRIPTION (( 'STEP AP203' ),
    '1' );
FILE_NAME ('a120.STEP',
    '2023-02-12T12:35:15',
    ( '' ),
    ( '' ),
    'SwSTEP 2.0',
    'SolidWorks 2019',
    '' );
FILE_SCHEMA (( 'CONFIG_CONTROL_DESIGN' ));
ENDSEC;

DATA;
#1 = DIRECTION ( 'NONE',  ( 1.000000000000000000, 0.000000000000000000, 0.000000000000000000 ) ) ;
#2 = PRODUCT_DEFINITION ( 'NEZNÁMÝ', '', #96, #226 ) ;
#3 = COORDINATED_UNIVERSAL_TIME_OFFSET ( 1, 0, .AHEAD. ) ;
#4 = PRODUCT ( 'a120', 'a120', '', ( #132 ) ) ;
#5 = ORIENTED_EDGE ( 'NONE', *, *, #212, .F. ) ;
#6 = ORGANIZATION ( 'NEURÈENÝ', 'NEURÈENÝ', '' ) ;
#7 = EDGE_LOOP ( 'NONE', ( #240, #192, #86, #121 ) ) ;
#8 = VERTEX_POINT ( 'NONE', #89 ) ;
#9 = CC_DESIGN_DATE_AND_TIME_ASSIGNMENT ( #239, #221, ( #156 ) ) ;
#10 = CYLINDRICAL_SURFACE ( 'NONE', #64, 4.000000000000000000 ) ;
#11 =( GEOMETRIC_REPRESENTATION_CONTEXT ( 3 ) GLOBAL_UNCERTAINTY_ASSIGNED_CONTEXT ( ( #74 ) ) GLOBAL_UNIT_ASSIGNED_CONTEXT ( ( #39, #36, #21 ) ) REPRESENTATION_CONTEXT ( 'NONE', 'WORKASPACE' ) );
#12 = DIRECTION ( 'NONE',  ( -1.000000000000000000, 0.000000000000000000, 0.000000000000000000 ) ) ;
#13 = DIRECTION ( 'NONE',  ( 0.000000000000000000, 0.000000000000000000, 1.000000000000000000 ) ) ;
#14 = FACE_BOUND ( 'NONE', #219, .T. ) ;
#15 = CIRCLE ( 'NONE', #191, 2.100000000000000089 ) ;
#16 = DIRECTION ( 'NONE',  ( 1.000000000000000000, 0.000000000000000000, 0.000000000000000000 ) ) ;
#17 = ORIENTED_EDGE ( 'NONE', *, *, #31, .T. ) ;
#18 = APPLICATION_PROTOCOL_DEFINITION ( 'international standard', 'config_control_design', 1994, #243 ) ;
#19 = AXIS2_PLACEMENT_3D ( 'NONE', #253, #135, #1 ) ;
#20 = CC_DESIGN_DATE_AND_TIME_ASSIGNMENT ( #241, #83, ( #2 ) ) ;
#21 =( NAMED_UNIT ( * ) SI_UNIT ( $, .STERADIAN. ) SOLID_ANGLE_UNIT ( ) );
#22 = PERSON_AND_ORGANIZATION ( #223, #6 ) ;
#23 = CIRCLE ( 'NONE', #91, 2.100000000000000089 ) ;
#24 = COORDINATED_UNIVERSAL_TIME_OFFSET ( 1, 0, .AHEAD. ) ;
#25 = ORIENTED_EDGE ( 'NONE', *, *, #184, .T. ) ;
#26 = APPROVAL_STATUS ( 'not_yet_approved' ) ;
#27 = VECTOR ( 'NONE', #53, 1000.000000000000000 ) ;
#28 = CYLINDRICAL_SURFACE ( 'NONE', #137, 2.100000000000000089 ) ;
#29 = CARTESIAN_POINT ( 'NONE',  ( 0.000000000000000000, 0.000000000000000000, 3.000000000000000000 ) ) ;
#30 = DIRECTION ( 'NONE',  ( -0.000000000000000000, -0.000000000000000000, -1.000000000000000000 ) ) ;
#31 = EDGE_CURVE ( 'NONE', #67, #238, #224, .T. ) ;
#32 = AXIS2_PLACEMENT_3D ( 'NONE', #255, #114, #16 ) ;
#33 = CARTESIAN_POINT ( 'NONE',  ( 0.000000000000000000, 0.000000000000000000, 500.0000000000000000 ) ) ;
#34 = CARTESIAN_POINT ( 'NONE',  ( 4.000000000000000000, 4.898587196589412829E-16, 3.000000000000000000 ) ) ;
#35 = DIRECTION ( 'NONE',  ( -0.000000000000000000, -0.000000000000000000, -1.000000000000000000 ) ) ;
#36 =( NAMED_UNIT ( * ) PLANE_ANGLE_UNIT ( ) SI_UNIT ( $, .RADIAN. ) );
#37 = ORIENTED_EDGE ( 'NONE', *, *, #94, .F. ) ;
#38 = EDGE_CURVE ( 'NONE', #178, #216, #92, .T. ) ;
#39 =( LENGTH_UNIT ( ) NAMED_UNIT ( * ) SI_UNIT ( .MILLI., .METRE. ) );
#40 = VECTOR ( 'NONE', #165, 1000.000000000000000 ) ;
#41 = CC_DESIGN_PERSON_AND_ORGANIZATION_ASSIGNMENT ( #123, #107, ( #2 ) ) ;
#42 = DATE_AND_TIME ( #158, #202 ) ;
#43 = DATE_AND_TIME ( #159, #236 ) ;
#44 = ORIENTED_EDGE ( 'NONE', *, *, #106, .T. ) ;
#45 = APPROVAL_ROLE ( '' ) ;
#46 = ORIENTED_EDGE ( 'NONE', *, *, #106, .F. ) ;
#47 = APPROVAL ( #175, 'NEURÈENÝ' ) ;
#48 = FACE_OUTER_BOUND ( 'NONE', #70, .T. ) ;
#49 = LOCAL_TIME ( 13, 35, 15.00000000000000000, #140 ) ;
#50 = CIRCLE ( 'NONE', #116, 4.000000000000000000 ) ;
#51 = CARTESIAN_POINT ( 'NONE',  ( 2.100000000000000089, 2.571758278209441464E-16, 500.0000000000000000 ) ) ;
#52 = ADVANCED_FACE ( 'NONE', ( #110 ), #28, .T. ) ;
#53 = DIRECTION ( 'NONE',  ( -0.000000000000000000, -0.000000000000000000, -1.000000000000000000 ) ) ;
#54 = FACE_OUTER_BOUND ( 'NONE', #7, .T. ) ;
#55 = AXIS2_PLACEMENT_3D ( 'NONE', #232, #57, #211 ) ;
#56 = DIRECTION ( 'NONE',  ( 0.000000000000000000, 0.000000000000000000, 1.000000000000000000 ) ) ;
#57 = DIRECTION ( 'NONE',  ( 0.000000000000000000, 0.000000000000000000, 1.000000000000000000 ) ) ;
#58 = CARTESIAN_POINT ( 'NONE',  ( 2.100000000000000089, 2.571758278209441464E-16, 3.000000000000000000 ) ) ;
#59 = APPLICATION_PROTOCOL_DEFINITION ( 'international standard', 'config_control_design', 1994, #231 ) ;
#60 = ADVANCED_FACE ( 'NONE', ( #128 ), #10, .T. ) ;
#61 = DIRECTION ( 'NONE',  ( 1.000000000000000000, 0.000000000000000000, -0.000000000000000000 ) ) ;
#62 = APPROVAL_ROLE ( '' ) ;
#63 = APPROVAL_PERSON_ORGANIZATION ( #215, #112, #62 ) ;
#64 = AXIS2_PLACEMENT_3D ( 'NONE', #150, #111, #12 ) ;
#65 = CC_DESIGN_SECURITY_CLASSIFICATION ( #156, ( #96 ) ) ;
#66 = CALENDAR_DATE ( 2023, 12, 2 ) ;
#67 = VERTEX_POINT ( 'NONE', #207 ) ;
#68 = DATE_AND_TIME ( #157, #104 ) ;
#69 = ORIENTED_EDGE ( 'NONE', *, *, #248, .F. ) ;
#70 = EDGE_LOOP ( 'NONE', ( #5, #46, #218, #146 ) ) ;
#71 = EDGE_CURVE ( 'NONE', #67, #163, #186, .T. ) ;
#72 = ORIENTED_EDGE ( 'NONE', *, *, #201, .F. ) ;
#73 = ORIENTED_EDGE ( 'NONE', *, *, #248, .T. ) ;
#74 = UNCERTAINTY_MEASURE_WITH_UNIT (LENGTH_MEASURE( 1.000000000000000082E-05 ), #39, 'distance_accuracy_value', 'NONE');
#75 = DIRECTION ( 'NONE',  ( -0.000000000000000000, -0.000000000000000000, -1.000000000000000000 ) ) ;
#76 = VERTEX_POINT ( 'NONE', #51 ) ;
#77 = PLANE ( 'NONE',  #176 ) ;
#78 = VECTOR ( 'NONE', #35, 1000.000000000000000 ) ;
#79 = DIRECTION ( 'NONE',  ( 1.000000000000000000, 0.000000000000000000, -0.000000000000000000 ) ) ;
#80 = AXIS2_PLACEMENT_3D ( 'NONE', #131, #167, #147 ) ;
#81 = EDGE_CURVE ( 'NONE', #238, #8, #185, .T. ) ;
#82 = EDGE_LOOP ( 'NONE', ( #145, #69, #242, #25 ) ) ;
#83 = DATE_TIME_ROLE ( 'creation_date' ) ;
#84 = PERSON_AND_ORGANIZATION_ROLE ( 'classification_officer' ) ;
#85 = ADVANCED_FACE ( 'NONE', ( #54 ), #151, .T. ) ;
#86 = ORIENTED_EDGE ( 'NONE', *, *, #94, .T. ) ;
#87 = ORIENTED_EDGE ( 'NONE', *, *, #245, .T. ) ;
#88 = AXIS2_PLACEMENT_3D ( 'NONE', #33, #250, #182 ) ;
#89 = CARTESIAN_POINT ( 'NONE',  ( -4.000000000000000000, 0.000000000000000000, 0.000000000000000000 ) ) ;
#90 = ORIENTED_EDGE ( 'NONE', *, *, #139, .F. ) ;
#91 = AXIS2_PLACEMENT_3D ( 'NONE', #195, #169, #251 ) ;
#92 = LINE ( 'NONE', #206, #40 ) ;
#93 = DIRECTION ( 'NONE',  ( -0.000000000000000000, -0.000000000000000000, -1.000000000000000000 ) ) ;
#94 = EDGE_CURVE ( 'NONE', #163, #8, #50, .T. ) ;
#95 = DIRECTION ( 'NONE',  ( 0.000000000000000000, 0.000000000000000000, 1.000000000000000000 ) ) ;
#96 = PRODUCT_DEFINITION_FORMATION_WITH_SPECIFIED_SOURCE ( 'LIBOVOLNÝ', '', #4, .NOT_KNOWN. ) ;
#97 = DIRECTION ( 'NONE',  ( 0.000000000000000000, 0.000000000000000000, 1.000000000000000000 ) ) ;
#98 = PRODUCT_RELATED_PRODUCT_CATEGORY ( 'detail', '', ( #4 ) ) ;
#99 = ORIENTED_EDGE ( 'NONE', *, *, #245, .F. ) ;
#100 = AXIS2_PLACEMENT_3D ( 'NONE', #152, #234, #134 ) ;
#101 = CARTESIAN_POINT ( 'NONE',  ( 0.000000000000000000, 0.000000000000000000, 3.000000000000000000 ) ) ;
#102 = CALENDAR_DATE ( 2023, 12, 2 ) ;
#103 = PERSON_AND_ORGANIZATION ( #223, #6 ) ;
#104 = LOCAL_TIME ( 13, 35, 15.00000000000000000, #3 ) ;
#105 = ORIENTED_EDGE ( 'NONE', *, *, #201, .T. ) ;
#106 = EDGE_CURVE ( 'NONE', #178, #76, #205, .T. ) ;
#107 = PERSON_AND_ORGANIZATION_ROLE ( 'creator' ) ;
#108 = DIRECTION ( 'NONE',  ( -1.000000000000000000, 0.000000000000000000, 0.000000000000000000 ) ) ;
#109 = FACE_OUTER_BOUND ( 'NONE', #171, .T. ) ;
#110 = FACE_OUTER_BOUND ( 'NONE', #166, .T. ) ;
#111 = DIRECTION ( 'NONE',  ( -0.000000000000000000, -0.000000000000000000, -1.000000000000000000 ) ) ;
#112 = APPROVAL ( #26, 'NEURÈENÝ' ) ;
#113 = PLANE ( 'NONE',  #80 ) ;
#114 = DIRECTION ( 'NONE',  ( 0.000000000000000000, 0.000000000000000000, 1.000000000000000000 ) ) ;
#115 = CC_DESIGN_APPROVAL ( #112, ( #2 ) ) ;
#116 = AXIS2_PLACEMENT_3D ( 'NONE', #208, #95, #164 ) ;
#117 = FACE_OUTER_BOUND ( 'NONE', #225, .T. ) ;
#118 = PERSON_AND_ORGANIZATION ( #223, #6 ) ;
#119 = APPROVAL_STATUS ( 'not_yet_approved' ) ;
#120 = APPROVAL_DATE_TIME ( #43, #188 ) ;
#121 = ORIENTED_EDGE ( 'NONE', *, *, #81, .F. ) ;
#122 = SHAPE_DEFINITION_REPRESENTATION ( #143, #198 ) ;
#123 = PERSON_AND_ORGANIZATION ( #223, #6 ) ;
#124 = CYLINDRICAL_SURFACE ( 'NONE', #141, 2.100000000000000089 ) ;
#125 = CC_DESIGN_APPROVAL ( #188, ( #96 ) ) ;
#126 = CC_DESIGN_PERSON_AND_ORGANIZATION_ASSIGNMENT ( #138, #177, ( #96 ) ) ;
#127 = CARTESIAN_POINT ( 'NONE',  ( 0.000000000000000000, 0.000000000000000000, 3.000000000000000000 ) ) ;
#128 = FACE_OUTER_BOUND ( 'NONE', #82, .T. ) ;
#129 = CARTESIAN_POINT ( 'NONE',  ( 0.000000000000000000, 0.000000000000000000, 3.000000000000000000 ) ) ;
#130 = ADVANCED_FACE ( 'NONE', ( #109 ), #113, .F. ) ;
#131 = CARTESIAN_POINT ( 'NONE',  ( 0.000000000000000000, 0.000000000000000000, 0.000000000000000000 ) ) ;
#132 = MECHANICAL_CONTEXT ( 'NONE', #231, 'mechanical' ) ;
#133 = CARTESIAN_POINT ( 'NONE',  ( 2.100000000000000089, 2.571758278209441464E-16, 500.0000000000000000 ) ) ;
#134 = DIRECTION ( 'NONE',  ( 1.000000000000000000, 0.000000000000000000, 0.000000000000000000 ) ) ;
#135 = DIRECTION ( 'NONE',  ( 0.000000000000000000, 0.000000000000000000, 1.000000000000000000 ) ) ;
#136 = PERSON_AND_ORGANIZATION ( #223, #6 ) ;
#137 = AXIS2_PLACEMENT_3D ( 'NONE', #244, #93, #108 ) ;
#138 = PERSON_AND_ORGANIZATION ( #223, #6 ) ;
#139 = EDGE_CURVE ( 'NONE', #216, #200, #15, .T. ) ;
#140 = COORDINATED_UNIVERSAL_TIME_OFFSET ( 1, 0, .AHEAD. ) ;
#141 = AXIS2_PLACEMENT_3D ( 'NONE', #247, #75, #149 ) ;
#142 = ORIENTED_EDGE ( 'NONE', *, *, #38, .F. ) ;
#143 = PRODUCT_DEFINITION_SHAPE ( 'NONE', 'NONE',  #2 ) ;
#144 = COORDINATED_UNIVERSAL_TIME_OFFSET ( 1, 0, .AHEAD. ) ;
#145 = ORIENTED_EDGE ( 'NONE', *, *, #71, .F. ) ;
#146 = ORIENTED_EDGE ( 'NONE', *, *, #139, .T. ) ;
#147 = DIRECTION ( 'NONE',  ( 1.000000000000000000, 0.000000000000000000, -0.000000000000000000 ) ) ;
#148 = APPROVAL_PERSON_ORGANIZATION ( #103, #47, #45 ) ;
#149 = DIRECTION ( 'NONE',  ( -1.000000000000000000, 0.000000000000000000, 0.000000000000000000 ) ) ;
#150 = CARTESIAN_POINT ( 'NONE',  ( 0.000000000000000000, 0.000000000000000000, 3.000000000000000000 ) ) ;
#151 = CYLINDRICAL_SURFACE ( 'NONE', #190, 4.000000000000000000 ) ;
#152 = CARTESIAN_POINT ( 'NONE',  ( 0.000000000000000000, 0.000000000000000000, 0.000000000000000000 ) ) ;
#153 = EDGE_LOOP ( 'NONE', ( #44, #87 ) ) ;
#154 = ADVANCED_FACE ( 'NONE', ( #183 ), #77, .T. ) ;
#155 = PERSON_AND_ORGANIZATION ( #223, #6 ) ;
#156 = SECURITY_CLASSIFICATION ( '', '', #217 ) ;
#157 = CALENDAR_DATE ( 2023, 12, 2 ) ;
#158 = CALENDAR_DATE ( 2023, 12, 2 ) ;
#159 = CALENDAR_DATE ( 2023, 12, 2 ) ;
#160 = CIRCLE ( 'NONE', #55, 4.000000000000000000 ) ;
#161 = ORIENTED_EDGE ( 'NONE', *, *, #184, .F. ) ;
#162 = CLOSED_SHELL ( 'NONE', ( #52, #85, #60, #220, #130, #170, #154 ) ) ;
#163 = VERTEX_POINT ( 'NONE', #222 ) ;
#164 = DIRECTION ( 'NONE',  ( 1.000000000000000000, 0.000000000000000000, 0.000000000000000000 ) ) ;
#165 = DIRECTION ( 'NONE',  ( -0.000000000000000000, -0.000000000000000000, -1.000000000000000000 ) ) ;
#166 = EDGE_LOOP ( 'NONE', ( #99, #181, #105, #142 ) ) ;
#167 = DIRECTION ( 'NONE',  ( 0.000000000000000000, 0.000000000000000000, 1.000000000000000000 ) ) ;
#168 = CARTESIAN_POINT ( 'NONE',  ( 0.000000000000000000, 0.000000000000000000, 500.0000000000000000 ) ) ;
#169 = DIRECTION ( 'NONE',  ( 0.000000000000000000, 0.000000000000000000, 1.000000000000000000 ) ) ;
#170 = ADVANCED_FACE ( 'NONE', ( #48 ), #124, .T. ) ;
#171 = EDGE_LOOP ( 'NONE', ( #161, #37 ) ) ;
#172 = AXIS2_PLACEMENT_3D ( 'NONE', #101, #97, #61 ) ;
#173 = LINE ( 'NONE', #133, #78 ) ;
#174 = APPROVAL_ROLE ( '' ) ;
#175 = APPROVAL_STATUS ( 'not_yet_approved' ) ;
#176 = AXIS2_PLACEMENT_3D ( 'NONE', #168, #13, #79 ) ;
#177 = PERSON_AND_ORGANIZATION_ROLE ( 'creator' ) ;
#178 = VERTEX_POINT ( 'NONE', #227 ) ;
#179 = CC_DESIGN_PERSON_AND_ORGANIZATION_ASSIGNMENT ( #136, #84, ( #156 ) ) ;
#180 = CIRCLE ( 'NONE', #19, 2.100000000000000089 ) ;
#181 = ORIENTED_EDGE ( 'NONE', *, *, #212, .T. ) ;
#182 = DIRECTION ( 'NONE',  ( 1.000000000000000000, 0.000000000000000000, 0.000000000000000000 ) ) ;
#183 = FACE_OUTER_BOUND ( 'NONE', #153, .T. ) ;
#184 = EDGE_CURVE ( 'NONE', #8, #163, #254, .T. ) ;
#185 = LINE ( 'NONE', #204, #203 ) ;
#186 = LINE ( 'NONE', #34, #27 ) ;
#187 = DIRECTION ( 'NONE',  ( 0.000000000000000000, 0.000000000000000000, 1.000000000000000000 ) ) ;
#188 = APPROVAL ( #119, 'NEURÈENÝ' ) ;
#189 = LOCAL_TIME ( 13, 35, 15.00000000000000000, #144 ) ;
#190 = AXIS2_PLACEMENT_3D ( 'NONE', #129, #30, #229 ) ;
#191 = AXIS2_PLACEMENT_3D ( 'NONE', #29, #187, #249 ) ;
#192 = ORIENTED_EDGE ( 'NONE', *, *, #71, .T. ) ;
#193 = PERSON_AND_ORGANIZATION_ROLE ( 'design_owner' ) ;
#194 = AXIS2_PLACEMENT_3D ( 'NONE', #127, #56, #209 ) ;
#195 = CARTESIAN_POINT ( 'NONE',  ( 0.000000000000000000, 0.000000000000000000, 500.0000000000000000 ) ) ;
#196 = MANIFOLD_SOLID_BREP ( 'Pøidat vysunutím3', #162 ) ;
#197 = PERSON_AND_ORGANIZATION_ROLE ( 'design_supplier' ) ;
#198 = ADVANCED_BREP_SHAPE_REPRESENTATION ( 'a120', ( #196, #100 ), #11 ) ;
#199 = APPROVAL_DATE_TIME ( #42, #112 ) ;
#200 = VERTEX_POINT ( 'NONE', #58 ) ;
#201 = EDGE_CURVE ( 'NONE', #200, #216, #180, .T. ) ;
#202 = LOCAL_TIME ( 13, 35, 15.00000000000000000, #237 ) ;
#203 = VECTOR ( 'NONE', #228, 1000.000000000000000 ) ;
#204 = CARTESIAN_POINT ( 'NONE',  ( -4.000000000000000000, 0.000000000000000000, 3.000000000000000000 ) ) ;
#205 = CIRCLE ( 'NONE', #88, 2.100000000000000089 ) ;
#206 = CARTESIAN_POINT ( 'NONE',  ( -2.100000000000000089, 0.000000000000000000, 500.0000000000000000 ) ) ;
#207 = CARTESIAN_POINT ( 'NONE',  ( 4.000000000000000000, 4.898587196589412829E-16, 3.000000000000000000 ) ) ;
#208 = CARTESIAN_POINT ( 'NONE',  ( 0.000000000000000000, 0.000000000000000000, 0.000000000000000000 ) ) ;
#209 = DIRECTION ( 'NONE',  ( 1.000000000000000000, 0.000000000000000000, 0.000000000000000000 ) ) ;
#210 = CARTESIAN_POINT ( 'NONE',  ( -2.100000000000000089, 0.000000000000000000, 3.000000000000000000 ) ) ;
#211 = DIRECTION ( 'NONE',  ( 1.000000000000000000, 0.000000000000000000, 0.000000000000000000 ) ) ;
#212 = EDGE_CURVE ( 'NONE', #76, #200, #173, .T. ) ;
#213 = CARTESIAN_POINT ( 'NONE',  ( -4.000000000000000000, 0.000000000000000000, 3.000000000000000000 ) ) ;
#214 = APPROVAL_DATE_TIME ( #68, #47 ) ;
#215 = PERSON_AND_ORGANIZATION ( #223, #6 ) ;
#216 = VERTEX_POINT ( 'NONE', #210 ) ;
#217 = SECURITY_CLASSIFICATION_LEVEL ( 'unclassified' ) ;
#218 = ORIENTED_EDGE ( 'NONE', *, *, #38, .T. ) ;
#219 = EDGE_LOOP ( 'NONE', ( #90, #72 ) ) ;
#220 = ADVANCED_FACE ( 'NONE', ( #14, #117 ), #235, .T. ) ;
#221 = DATE_TIME_ROLE ( 'classification_date' ) ;
#222 = CARTESIAN_POINT ( 'NONE',  ( 4.000000000000000000, 4.898587196589412829E-16, 0.000000000000000000 ) ) ;
#223 = PERSON ( 'NEURÈENÝ', 'NEURÈENÝ', 'NEURÈENÝ', ('NEURÈENÝ'), ('NEURÈENÝ'), ('NEURÈENÝ') ) ;
#224 = CIRCLE ( 'NONE', #194, 4.000000000000000000 ) ;
#225 = EDGE_LOOP ( 'NONE', ( #73, #17 ) ) ;
#226 = DESIGN_CONTEXT ( 'detailed design', #243, 'design' ) ;
#227 = CARTESIAN_POINT ( 'NONE',  ( -2.100000000000000089, 0.000000000000000000, 500.0000000000000000 ) ) ;
#228 = DIRECTION ( 'NONE',  ( -0.000000000000000000, -0.000000000000000000, -1.000000000000000000 ) ) ;
#229 = DIRECTION ( 'NONE',  ( -1.000000000000000000, 0.000000000000000000, 0.000000000000000000 ) ) ;
#230 = CC_DESIGN_PERSON_AND_ORGANIZATION_ASSIGNMENT ( #22, #197, ( #96 ) ) ;
#231 = APPLICATION_CONTEXT ( 'configuration controlled 3d designs of mechanical parts and assemblies' ) ;
#232 = CARTESIAN_POINT ( 'NONE',  ( 0.000000000000000000, 0.000000000000000000, 3.000000000000000000 ) ) ;
#233 = APPROVAL_PERSON_ORGANIZATION ( #155, #188, #174 ) ;
#234 = DIRECTION ( 'NONE',  ( 0.000000000000000000, 0.000000000000000000, 1.000000000000000000 ) ) ;
#235 = PLANE ( 'NONE',  #172 ) ;
#236 = LOCAL_TIME ( 13, 35, 15.00000000000000000, #24 ) ;
#237 = COORDINATED_UNIVERSAL_TIME_OFFSET ( 1, 0, .AHEAD. ) ;
#238 = VERTEX_POINT ( 'NONE', #213 ) ;
#239 = DATE_AND_TIME ( #102, #189 ) ;
#240 = ORIENTED_EDGE ( 'NONE', *, *, #31, .F. ) ;
#241 = DATE_AND_TIME ( #66, #49 ) ;
#242 = ORIENTED_EDGE ( 'NONE', *, *, #81, .T. ) ;
#243 = APPLICATION_CONTEXT ( 'configuration controlled 3d designs of mechanical parts and assemblies' ) ;
#244 = CARTESIAN_POINT ( 'NONE',  ( 0.000000000000000000, 0.000000000000000000, 500.0000000000000000 ) ) ;
#245 = EDGE_CURVE ( 'NONE', #76, #178, #23, .T. ) ;
#246 = CC_DESIGN_APPROVAL ( #47, ( #156 ) ) ;
#247 = CARTESIAN_POINT ( 'NONE',  ( 0.000000000000000000, 0.000000000000000000, 500.0000000000000000 ) ) ;
#248 = EDGE_CURVE ( 'NONE', #238, #67, #160, .T. ) ;
#249 = DIRECTION ( 'NONE',  ( 1.000000000000000000, 0.000000000000000000, 0.000000000000000000 ) ) ;
#250 = DIRECTION ( 'NONE',  ( 0.000000000000000000, 0.000000000000000000, 1.000000000000000000 ) ) ;
#251 = DIRECTION ( 'NONE',  ( 1.000000000000000000, 0.000000000000000000, 0.000000000000000000 ) ) ;
#252 = CC_DESIGN_PERSON_AND_ORGANIZATION_ASSIGNMENT ( #118, #193, ( #4 ) ) ;
#253 = CARTESIAN_POINT ( 'NONE',  ( 0.000000000000000000, 0.000000000000000000, 3.000000000000000000 ) ) ;
#254 = CIRCLE ( 'NONE', #32, 4.000000000000000000 ) ;
#255 = CARTESIAN_POINT ( 'NONE',  ( 0.000000000000000000, 0.000000000000000000, 0.000000000000000000 ) ) ;
ENDSEC;
END-ISO-10303-21;
