ISO-10303-21;
HEADER;
FILE_DESCRIPTION (( 'STEP AP203' ),
    '1' );
FILE_NAME ('915d.STEP',
    '2023-02-12T12:58:12',
    ( '' ),
    ( '' ),
    'SwSTEP 2.0',
    'SolidWorks 2019',
    '' );
FILE_SCHEMA (( 'CONFIG_CONTROL_DESIGN' ));
ENDSEC;

DATA;
#1 = ORIENTED_EDGE ( 'NONE', *, *, #93, .F. ) ;
#2 = APPROVAL_DATE_TIME ( #22, #75 ) ;
#3 = VERTEX_POINT ( 'NONE', #225 ) ;
#4 = CC_DESIGN_PERSON_AND_ORGANIZATION_ASSIGNMENT ( #237, #60, ( #79 ) ) ;
#5 = ORIENTED_EDGE ( 'NONE', *, *, #17, .T. ) ;
#6 = ORIENTED_EDGE ( 'NONE', *, *, #179, .T. ) ;
#7 = EDGE_CURVE ( 'NONE', #80, #141, #100, .T. ) ;
#8 = CARTESIAN_POINT ( 'NONE',  ( 0.000000000000000000, 0.000000000000000000, 100.0000000000000000 ) ) ;
#9 = ORGANIZATION ( 'NEURÈENÝ', 'NEURÈENÝ', '' ) ;
#10 = DIRECTION ( 'NONE',  ( 0.000000000000000000, 0.000000000000000000, 1.000000000000000000 ) ) ;
#11 = CARTESIAN_POINT ( 'NONE',  ( 0.6999999999999999556, 8.572527594031471957E-17, 100.0000000000000000 ) ) ;
#12 = CALENDAR_DATE ( 2023, 12, 2 ) ;
#13 = CARTESIAN_POINT ( 'NONE',  ( 0.000000000000000000, 0.000000000000000000, 1.500000000000000000 ) ) ;
#14 = CYLINDRICAL_SURFACE ( 'NONE', #105, 0.6999999999999999556 ) ;
#15 = CIRCLE ( 'NONE', #144, 1.500000000000000222 ) ;
#16 = CALENDAR_DATE ( 2023, 12, 2 ) ;
#17 = EDGE_CURVE ( 'NONE', #241, #3, #23, .T. ) ;
#18 = CALENDAR_DATE ( 2023, 12, 2 ) ;
#19 = AXIS2_PLACEMENT_3D ( 'NONE', #125, #10, #90 ) ;
#20 = DIRECTION ( 'NONE',  ( 1.000000000000000000, 0.000000000000000000, 0.000000000000000000 ) ) ;
#21 = ADVANCED_FACE ( 'NONE', ( #120 ), #44, .T. ) ;
#22 = DATE_AND_TIME ( #140, #30 ) ;
#23 = LINE ( 'NONE', #122, #242 ) ;
#24 = VECTOR ( 'NONE', #83, 1000.000000000000000 ) ;
#25 = CC_DESIGN_DATE_AND_TIME_ASSIGNMENT ( #86, #224, ( #171 ) ) ;
#26 = VERTEX_POINT ( 'NONE', #200 ) ;
#27 = ORIENTED_EDGE ( 'NONE', *, *, #46, .F. ) ;
#28 = COORDINATED_UNIVERSAL_TIME_OFFSET ( 1, 0, .AHEAD. ) ;
#29 = CARTESIAN_POINT ( 'NONE',  ( 0.000000000000000000, 0.000000000000000000, 1.500000000000000000 ) ) ;
#30 = LOCAL_TIME ( 13, 58, 12.00000000000000000, #174 ) ;
#31 = DIRECTION ( 'NONE',  ( 1.000000000000000000, 0.000000000000000000, 0.000000000000000000 ) ) ;
#32 = CALENDAR_DATE ( 2023, 12, 2 ) ;
#33 = PLANE ( 'NONE',  #198 ) ;
#34 = PERSON ( 'NEURÈENÝ', 'NEURÈENÝ', 'NEURÈENÝ', ('NEURÈENÝ'), ('NEURÈENÝ'), ('NEURÈENÝ') ) ;
#35 = FACE_OUTER_BOUND ( 'NONE', #143, .T. ) ;
#36 = CIRCLE ( 'NONE', #114, 1.500000000000000222 ) ;
#37 = FACE_OUTER_BOUND ( 'NONE', #107, .T. ) ;
#38 = APPLICATION_PROTOCOL_DEFINITION ( 'international standard', 'config_control_design', 1994, #191 ) ;
#39 = COORDINATED_UNIVERSAL_TIME_OFFSET ( 1, 0, .AHEAD. ) ;
#40 = AXIS2_PLACEMENT_3D ( 'NONE', #29, #77, #205 ) ;
#41 = PRODUCT_DEFINITION_FORMATION_WITH_SPECIFIED_SOURCE ( 'LIBOVOLNÝ', '', #79, .NOT_KNOWN. ) ;
#42 = ORIENTED_EDGE ( 'NONE', *, *, #17, .F. ) ;
#43 = APPROVAL ( #48, 'NEURÈENÝ' ) ;
#44 = CYLINDRICAL_SURFACE ( 'NONE', #104, 0.6999999999999999556 ) ;
#45 = DIRECTION ( 'NONE',  ( -1.000000000000000000, 0.000000000000000000, 0.000000000000000000 ) ) ;
#46 = EDGE_CURVE ( 'NONE', #26, #136, #103, .T. ) ;
#47 = ORIENTED_EDGE ( 'NONE', *, *, #138, .F. ) ;
#48 = APPROVAL_STATUS ( 'not_yet_approved' ) ;
#49 = DIRECTION ( 'NONE',  ( 0.000000000000000000, 0.000000000000000000, 1.000000000000000000 ) ) ;
#50 = DIRECTION ( 'NONE',  ( 0.000000000000000000, 0.000000000000000000, 1.000000000000000000 ) ) ;
#51 = DIRECTION ( 'NONE',  ( 0.000000000000000000, 0.000000000000000000, 1.000000000000000000 ) ) ;
#52 = CARTESIAN_POINT ( 'NONE',  ( 0.000000000000000000, 0.000000000000000000, 1.500000000000000000 ) ) ;
#53 = AXIS2_PLACEMENT_3D ( 'NONE', #52, #209, #151 ) ;
#54 = LINE ( 'NONE', #167, #150 ) ;
#55 = DIRECTION ( 'NONE',  ( 1.000000000000000000, 0.000000000000000000, 0.000000000000000000 ) ) ;
#56 = APPROVAL_DATE_TIME ( #135, #88 ) ;
#57 = APPROVAL_STATUS ( 'not_yet_approved' ) ;
#58 = CC_DESIGN_SECURITY_CLASSIFICATION ( #171, ( #41 ) ) ;
#59 = APPROVAL_ROLE ( '' ) ;
#60 = PERSON_AND_ORGANIZATION_ROLE ( 'design_owner' ) ;
#61 = ORIENTED_EDGE ( 'NONE', *, *, #66, .T. ) ;
#62 = ADVANCED_FACE ( 'NONE', ( #244 ), #130, .T. ) ;
#63 = LOCAL_TIME ( 13, 58, 12.00000000000000000, #164 ) ;
#64 = ORIENTED_EDGE ( 'NONE', *, *, #46, .T. ) ;
#65 = ORIENTED_EDGE ( 'NONE', *, *, #179, .F. ) ;
#66 = EDGE_CURVE ( 'NONE', #141, #238, #54, .T. ) ;
#67 = ORIENTED_EDGE ( 'NONE', *, *, #231, .F. ) ;
#68 = ORIENTED_EDGE ( 'NONE', *, *, #93, .T. ) ;
#69 = DIRECTION ( 'NONE',  ( 0.000000000000000000, 0.000000000000000000, 1.000000000000000000 ) ) ;
#70 = CARTESIAN_POINT ( 'NONE',  ( 0.6999999999999999556, 8.572527594031471957E-17, 100.0000000000000000 ) ) ;
#71 = CC_DESIGN_PERSON_AND_ORGANIZATION_ASSIGNMENT ( #147, #126, ( #171 ) ) ;
#72 = DIRECTION ( 'NONE',  ( 0.000000000000000000, 0.000000000000000000, 1.000000000000000000 ) ) ;
#73 = APPROVAL_PERSON_ORGANIZATION ( #210, #43, #208 ) ;
#74 = CYLINDRICAL_SURFACE ( 'NONE', #53, 1.500000000000000222 ) ;
#75 = APPROVAL ( #57, 'NEURÈENÝ' ) ;
#76 = EDGE_CURVE ( 'NONE', #80, #201, #146, .T. ) ;
#77 = DIRECTION ( 'NONE',  ( -0.000000000000000000, -0.000000000000000000, -1.000000000000000000 ) ) ;
#78 = DATE_TIME_ROLE ( 'creation_date' ) ;
#79 = PRODUCT ( '915d', '915d', '', ( #235 ) ) ;
#80 = VERTEX_POINT ( 'NONE', #70 ) ;
#81 = MANIFOLD_SOLID_BREP ( 'Pøidat vysunutím3', #193 ) ;
#82 = ORIENTED_EDGE ( 'NONE', *, *, #138, .T. ) ;
#83 = DIRECTION ( 'NONE',  ( -0.000000000000000000, -0.000000000000000000, -1.000000000000000000 ) ) ;
#84 = EDGE_LOOP ( 'NONE', ( #82, #159 ) ) ;
#85 = AXIS2_PLACEMENT_3D ( 'NONE', #110, #109, #229 ) ;
#86 = DATE_AND_TIME ( #32, #63 ) ;
#87 = DIRECTION ( 'NONE',  ( -0.000000000000000000, -0.000000000000000000, -1.000000000000000000 ) ) ;
#88 = APPROVAL ( #99, 'NEURÈENÝ' ) ;
#89 = CARTESIAN_POINT ( 'NONE',  ( 0.6999999999999999556, 8.572527594031471957E-17, 1.500000000000000000 ) ) ;
#90 = DIRECTION ( 'NONE',  ( 1.000000000000000000, 0.000000000000000000, 0.000000000000000000 ) ) ;
#91 =( GEOMETRIC_REPRESENTATION_CONTEXT ( 3 ) GLOBAL_UNCERTAINTY_ASSIGNED_CONTEXT ( ( #168 ) ) GLOBAL_UNIT_ASSIGNED_CONTEXT ( ( #194, #113, #214 ) ) REPRESENTATION_CONTEXT ( 'NONE', 'WORKASPACE' ) );
#92 = DIRECTION ( 'NONE',  ( 1.000000000000000000, 0.000000000000000000, 0.000000000000000000 ) ) ;
#93 = EDGE_CURVE ( 'NONE', #241, #26, #15, .T. ) ;
#94 = VECTOR ( 'NONE', #227, 1000.000000000000000 ) ;
#95 = CARTESIAN_POINT ( 'NONE',  ( -1.500000000000000222, 0.000000000000000000, 0.000000000000000000 ) ) ;
#96 = DESIGN_CONTEXT ( 'detailed design', #215, 'design' ) ;
#97 = DATE_AND_TIME ( #16, #228 ) ;
#98 = ADVANCED_FACE ( 'NONE', ( #37 ), #74, .T. ) ;
#99 = APPROVAL_STATUS ( 'not_yet_approved' ) ;
#100 = CIRCLE ( 'NONE', #230, 0.6999999999999999556 ) ;
#101 = ORIENTED_EDGE ( 'NONE', *, *, #255, .T. ) ;
#102 = PERSON_AND_ORGANIZATION_ROLE ( 'creator' ) ;
#103 = LINE ( 'NONE', #178, #24 ) ;
#104 = AXIS2_PLACEMENT_3D ( 'NONE', #119, #139, #45 ) ;
#105 = AXIS2_PLACEMENT_3D ( 'NONE', #8, #87, #249 ) ;
#106 = ORIENTED_EDGE ( 'NONE', *, *, #255, .F. ) ;
#107 = EDGE_LOOP ( 'NONE', ( #1, #5, #6, #27 ) ) ;
#108 = ADVANCED_FACE ( 'NONE', ( #128, #248 ), #33, .T. ) ;
#109 = DIRECTION ( 'NONE',  ( 0.000000000000000000, 0.000000000000000000, 1.000000000000000000 ) ) ;
#110 = CARTESIAN_POINT ( 'NONE',  ( 0.000000000000000000, 0.000000000000000000, 1.500000000000000000 ) ) ;
#111 = DIRECTION ( 'NONE',  ( 0.000000000000000000, 0.000000000000000000, 1.000000000000000000 ) ) ;
#112 = CARTESIAN_POINT ( 'NONE',  ( 0.000000000000000000, 0.000000000000000000, 0.000000000000000000 ) ) ;
#113 =( NAMED_UNIT ( * ) PLANE_ANGLE_UNIT ( ) SI_UNIT ( $, .RADIAN. ) );
#114 = AXIS2_PLACEMENT_3D ( 'NONE', #233, #50, #55 ) ;
#115 = LOCAL_TIME ( 13, 58, 12.00000000000000000, #28 ) ;
#116 = ADVANCED_FACE ( 'NONE', ( #35 ), #213, .F. ) ;
#117 = AXIS2_PLACEMENT_3D ( 'NONE', #134, #252, #153 ) ;
#118 = ORIENTED_EDGE ( 'NONE', *, *, #155, .F. ) ;
#119 = CARTESIAN_POINT ( 'NONE',  ( 0.000000000000000000, 0.000000000000000000, 100.0000000000000000 ) ) ;
#120 = FACE_OUTER_BOUND ( 'NONE', #158, .T. ) ;
#121 = ORIENTED_EDGE ( 'NONE', *, *, #7, .F. ) ;
#122 = CARTESIAN_POINT ( 'NONE',  ( 1.500000000000000222, 1.836970198721030181E-16, 1.500000000000000000 ) ) ;
#123 = CARTESIAN_POINT ( 'NONE',  ( 0.000000000000000000, 0.000000000000000000, 100.0000000000000000 ) ) ;
#124 = CIRCLE ( 'NONE', #85, 1.500000000000000222 ) ;
#125 = CARTESIAN_POINT ( 'NONE',  ( 0.000000000000000000, 0.000000000000000000, 1.500000000000000000 ) ) ;
#126 = PERSON_AND_ORGANIZATION_ROLE ( 'classification_officer' ) ;
#127 = CARTESIAN_POINT ( 'NONE',  ( 0.000000000000000000, 0.000000000000000000, 100.0000000000000000 ) ) ;
#128 = FACE_BOUND ( 'NONE', #219, .T. ) ;
#129 = CIRCLE ( 'NONE', #162, 0.6999999999999999556 ) ;
#130 = PLANE ( 'NONE',  #169 ) ;
#131 = CC_DESIGN_PERSON_AND_ORGANIZATION_ASSIGNMENT ( #177, #102, ( #41 ) ) ;
#132 = APPLICATION_PROTOCOL_DEFINITION ( 'international standard', 'config_control_design', 1994, #215 ) ;
#133 = ADVANCED_FACE ( 'NONE', ( #181 ), #14, .T. ) ;
#134 = CARTESIAN_POINT ( 'NONE',  ( 0.000000000000000000, 0.000000000000000000, 0.000000000000000000 ) ) ;
#135 = DATE_AND_TIME ( #18, #183 ) ;
#136 = VERTEX_POINT ( 'NONE', #95 ) ;
#137 = CARTESIAN_POINT ( 'NONE',  ( 0.000000000000000000, 0.000000000000000000, 100.0000000000000000 ) ) ;
#138 = EDGE_CURVE ( 'NONE', #141, #80, #218, .T. ) ;
#139 = DIRECTION ( 'NONE',  ( -0.000000000000000000, -0.000000000000000000, -1.000000000000000000 ) ) ;
#140 = CALENDAR_DATE ( 2023, 12, 2 ) ;
#141 = VERTEX_POINT ( 'NONE', #152 ) ;
#142 = PRODUCT_RELATED_PRODUCT_CATEGORY ( 'detail', '', ( #79 ) ) ;
#143 = EDGE_LOOP ( 'NONE', ( #222, #65 ) ) ;
#144 = AXIS2_PLACEMENT_3D ( 'NONE', #13, #111, #92 ) ;
#145 = APPROVAL_DATE_TIME ( #202, #43 ) ;
#146 = LINE ( 'NONE', #11, #94 ) ;
#147 = PERSON_AND_ORGANIZATION ( #34, #9 ) ;
#148 = CC_DESIGN_APPROVAL ( #75, ( #41 ) ) ;
#149 = CARTESIAN_POINT ( 'NONE',  ( -0.6999999999999999556, 0.000000000000000000, 1.500000000000000000 ) ) ;
#150 = VECTOR ( 'NONE', #186, 1000.000000000000000 ) ;
#151 = DIRECTION ( 'NONE',  ( -1.000000000000000000, 0.000000000000000000, 0.000000000000000000 ) ) ;
#152 = CARTESIAN_POINT ( 'NONE',  ( -0.6999999999999999556, 0.000000000000000000, 100.0000000000000000 ) ) ;
#153 = DIRECTION ( 'NONE',  ( 1.000000000000000000, 0.000000000000000000, 0.000000000000000000 ) ) ;
#154 = PERSON_AND_ORGANIZATION ( #34, #9 ) ;
#155 = EDGE_CURVE ( 'NONE', #201, #238, #239, .T. ) ;
#156 = ORIENTED_EDGE ( 'NONE', *, *, #66, .F. ) ;
#157 = EDGE_LOOP ( 'NONE', ( #42, #106, #64, #245 ) ) ;
#158 = EDGE_LOOP ( 'NONE', ( #180, #47, #61, #176 ) ) ;
#159 = ORIENTED_EDGE ( 'NONE', *, *, #7, .T. ) ;
#160 = ADVANCED_FACE ( 'NONE', ( #251 ), #163, .T. ) ;
#161 = ORIENTED_EDGE ( 'NONE', *, *, #155, .T. ) ;
#162 = AXIS2_PLACEMENT_3D ( 'NONE', #247, #72, #207 ) ;
#163 = CYLINDRICAL_SURFACE ( 'NONE', #40, 1.500000000000000222 ) ;
#164 = COORDINATED_UNIVERSAL_TIME_OFFSET ( 1, 0, .AHEAD. ) ;
#165 = DIRECTION ( 'NONE',  ( 0.000000000000000000, 0.000000000000000000, 1.000000000000000000 ) ) ;
#166 = DIRECTION ( 'NONE',  ( 0.000000000000000000, 0.000000000000000000, 1.000000000000000000 ) ) ;
#167 = CARTESIAN_POINT ( 'NONE',  ( -0.6999999999999999556, 0.000000000000000000, 100.0000000000000000 ) ) ;
#168 = UNCERTAINTY_MEASURE_WITH_UNIT (LENGTH_MEASURE( 1.000000000000000082E-05 ), #194, 'distance_accuracy_value', 'NONE');
#169 = AXIS2_PLACEMENT_3D ( 'NONE', #127, #250, #187 ) ;
#170 = DIRECTION ( 'NONE',  ( 1.000000000000000000, 0.000000000000000000, 0.000000000000000000 ) ) ;
#171 = SECURITY_CLASSIFICATION ( '', '', #240 ) ;
#172 = AXIS2_PLACEMENT_3D ( 'NONE', #123, #69, #170 ) ;
#173 = PERSON_AND_ORGANIZATION ( #34, #9 ) ;
#174 = COORDINATED_UNIVERSAL_TIME_OFFSET ( 1, 0, .AHEAD. ) ;
#175 = PRODUCT_DEFINITION ( 'NEZNÁMÝ', '', #41, #96 ) ;
#176 = ORIENTED_EDGE ( 'NONE', *, *, #231, .T. ) ;
#177 = PERSON_AND_ORGANIZATION ( #34, #9 ) ;
#178 = CARTESIAN_POINT ( 'NONE',  ( -1.500000000000000222, 0.000000000000000000, 1.500000000000000000 ) ) ;
#179 = EDGE_CURVE ( 'NONE', #3, #136, #36, .T. ) ;
#180 = ORIENTED_EDGE ( 'NONE', *, *, #76, .F. ) ;
#181 = FACE_OUTER_BOUND ( 'NONE', #223, .T. ) ;
#182 = APPROVAL_PERSON_ORGANIZATION ( #154, #75, #217 ) ;
#183 = LOCAL_TIME ( 13, 58, 12.00000000000000000, #39 ) ;
#184 = CARTESIAN_POINT ( 'NONE',  ( 0.000000000000000000, 0.000000000000000000, 0.000000000000000000 ) ) ;
#185 = CC_DESIGN_PERSON_AND_ORGANIZATION_ASSIGNMENT ( #173, #216, ( #175 ) ) ;
#186 = DIRECTION ( 'NONE',  ( -0.000000000000000000, -0.000000000000000000, -1.000000000000000000 ) ) ;
#187 = DIRECTION ( 'NONE',  ( 1.000000000000000000, 0.000000000000000000, -0.000000000000000000 ) ) ;
#188 = ADVANCED_BREP_SHAPE_REPRESENTATION ( '915d', ( #81, #117 ), #91 ) ;
#189 = DIRECTION ( 'NONE',  ( 1.000000000000000000, 0.000000000000000000, -0.000000000000000000 ) ) ;
#190 = CC_DESIGN_PERSON_AND_ORGANIZATION_ASSIGNMENT ( #220, #199, ( #41 ) ) ;
#191 = APPLICATION_CONTEXT ( 'configuration controlled 3d designs of mechanical parts and assemblies' ) ;
#192 = COORDINATED_UNIVERSAL_TIME_OFFSET ( 1, 0, .AHEAD. ) ;
#193 = CLOSED_SHELL ( 'NONE', ( #133, #98, #160, #108, #116, #21, #62 ) ) ;
#194 =( LENGTH_UNIT ( ) NAMED_UNIT ( * ) SI_UNIT ( .MILLI., .METRE. ) );
#195 = AXIS2_PLACEMENT_3D ( 'NONE', #112, #51, #189 ) ;
#196 = PERSON_AND_ORGANIZATION ( #34, #9 ) ;
#197 = EDGE_CURVE ( 'NONE', #136, #3, #212, .T. ) ;
#198 = AXIS2_PLACEMENT_3D ( 'NONE', #232, #165, #211 ) ;
#199 = PERSON_AND_ORGANIZATION_ROLE ( 'design_supplier' ) ;
#200 = CARTESIAN_POINT ( 'NONE',  ( -1.500000000000000222, 0.000000000000000000, 1.500000000000000000 ) ) ;
#201 = VERTEX_POINT ( 'NONE', #89 ) ;
#202 = DATE_AND_TIME ( #12, #115 ) ;
#203 = ORIENTED_EDGE ( 'NONE', *, *, #76, .T. ) ;
#204 = SHAPE_DEFINITION_REPRESENTATION ( #254, #188 ) ;
#205 = DIRECTION ( 'NONE',  ( -1.000000000000000000, 0.000000000000000000, 0.000000000000000000 ) ) ;
#206 = CC_DESIGN_APPROVAL ( #43, ( #171 ) ) ;
#207 = DIRECTION ( 'NONE',  ( 1.000000000000000000, 0.000000000000000000, 0.000000000000000000 ) ) ;
#208 = APPROVAL_ROLE ( '' ) ;
#209 = DIRECTION ( 'NONE',  ( -0.000000000000000000, -0.000000000000000000, -1.000000000000000000 ) ) ;
#210 = PERSON_AND_ORGANIZATION ( #34, #9 ) ;
#211 = DIRECTION ( 'NONE',  ( 1.000000000000000000, 0.000000000000000000, -0.000000000000000000 ) ) ;
#212 = CIRCLE ( 'NONE', #246, 1.500000000000000222 ) ;
#213 = PLANE ( 'NONE',  #195 ) ;
#214 =( NAMED_UNIT ( * ) SI_UNIT ( $, .STERADIAN. ) SOLID_ANGLE_UNIT ( ) );
#215 = APPLICATION_CONTEXT ( 'configuration controlled 3d designs of mechanical parts and assemblies' ) ;
#216 = PERSON_AND_ORGANIZATION_ROLE ( 'creator' ) ;
#217 = APPROVAL_ROLE ( '' ) ;
#218 = CIRCLE ( 'NONE', #172, 0.6999999999999999556 ) ;
#219 = EDGE_LOOP ( 'NONE', ( #67, #118 ) ) ;
#220 = PERSON_AND_ORGANIZATION ( #34, #9 ) ;
#221 = DIRECTION ( 'NONE',  ( -0.000000000000000000, -0.000000000000000000, -1.000000000000000000 ) ) ;
#222 = ORIENTED_EDGE ( 'NONE', *, *, #197, .F. ) ;
#223 = EDGE_LOOP ( 'NONE', ( #121, #203, #161, #156 ) ) ;
#224 = DATE_TIME_ROLE ( 'classification_date' ) ;
#225 = CARTESIAN_POINT ( 'NONE',  ( 1.500000000000000222, 1.836970198721030181E-16, 0.000000000000000000 ) ) ;
#226 = CARTESIAN_POINT ( 'NONE',  ( 1.500000000000000222, 1.836970198721030181E-16, 1.500000000000000000 ) ) ;
#227 = DIRECTION ( 'NONE',  ( -0.000000000000000000, -0.000000000000000000, -1.000000000000000000 ) ) ;
#228 = LOCAL_TIME ( 13, 58, 12.00000000000000000, #192 ) ;
#229 = DIRECTION ( 'NONE',  ( 1.000000000000000000, 0.000000000000000000, 0.000000000000000000 ) ) ;
#230 = AXIS2_PLACEMENT_3D ( 'NONE', #137, #49, #20 ) ;
#231 = EDGE_CURVE ( 'NONE', #238, #201, #129, .T. ) ;
#232 = CARTESIAN_POINT ( 'NONE',  ( 0.000000000000000000, 0.000000000000000000, 1.500000000000000000 ) ) ;
#233 = CARTESIAN_POINT ( 'NONE',  ( 0.000000000000000000, 0.000000000000000000, 0.000000000000000000 ) ) ;
#234 = CC_DESIGN_APPROVAL ( #88, ( #175 ) ) ;
#235 = MECHANICAL_CONTEXT ( 'NONE', #191, 'mechanical' ) ;
#236 = CC_DESIGN_DATE_AND_TIME_ASSIGNMENT ( #97, #78, ( #175 ) ) ;
#237 = PERSON_AND_ORGANIZATION ( #34, #9 ) ;
#238 = VERTEX_POINT ( 'NONE', #149 ) ;
#239 = CIRCLE ( 'NONE', #19, 0.6999999999999999556 ) ;
#240 = SECURITY_CLASSIFICATION_LEVEL ( 'unclassified' ) ;
#241 = VERTEX_POINT ( 'NONE', #226 ) ;
#242 = VECTOR ( 'NONE', #221, 1000.000000000000000 ) ;
#243 = EDGE_LOOP ( 'NONE', ( #101, #68 ) ) ;
#244 = FACE_OUTER_BOUND ( 'NONE', #84, .T. ) ;
#245 = ORIENTED_EDGE ( 'NONE', *, *, #197, .T. ) ;
#246 = AXIS2_PLACEMENT_3D ( 'NONE', #184, #166, #31 ) ;
#247 = CARTESIAN_POINT ( 'NONE',  ( 0.000000000000000000, 0.000000000000000000, 1.500000000000000000 ) ) ;
#248 = FACE_OUTER_BOUND ( 'NONE', #243, .T. ) ;
#249 = DIRECTION ( 'NONE',  ( -1.000000000000000000, 0.000000000000000000, 0.000000000000000000 ) ) ;
#250 = DIRECTION ( 'NONE',  ( 0.000000000000000000, 0.000000000000000000, 1.000000000000000000 ) ) ;
#251 = FACE_OUTER_BOUND ( 'NONE', #157, .T. ) ;
#252 = DIRECTION ( 'NONE',  ( 0.000000000000000000, 0.000000000000000000, 1.000000000000000000 ) ) ;
#253 = APPROVAL_PERSON_ORGANIZATION ( #196, #88, #59 ) ;
#254 = PRODUCT_DEFINITION_SHAPE ( 'NONE', 'NONE',  #175 ) ;
#255 = EDGE_CURVE ( 'NONE', #26, #241, #124, .T. ) ;
ENDSEC;
END-ISO-10303-21;
