ISO-10303-21;
HEADER;
FILE_DESCRIPTION (( 'STEP AP203' ),
    '1' );
FILE_NAME ('3ea2.STEP',
    '2023-02-12T12:05:56',
    ( '' ),
    ( '' ),
    'SwSTEP 2.0',
    'SolidWorks 2019',
    '' );
FILE_SCHEMA (( 'CONFIG_CONTROL_DESIGN' ));
ENDSEC;

DATA;
#1 = CC_DESIGN_DATE_AND_TIME_ASSIGNMENT ( #159, #143, ( #168 ) ) ;
#2 = ORIENTED_EDGE ( 'NONE', *, *, #228, .F. ) ;
#3 = AXIS2_PLACEMENT_3D ( 'NONE', #242, #180, #10 ) ;
#4 = EDGE_LOOP ( 'NONE', ( #182, #241, #140, #20 ) ) ;
#5 = EDGE_LOOP ( 'NONE', ( #2, #234 ) ) ;
#6 = LINE ( 'NONE', #90, #240 ) ;
#7 = ORIENTED_EDGE ( 'NONE', *, *, #26, .F. ) ;
#8 = FACE_OUTER_BOUND ( 'NONE', #122, .T. ) ;
#9 = ADVANCED_FACE ( 'NONE', ( #115 ), #204, .T. ) ;
#10 = DIRECTION ( 'NONE',  ( -1.000000000000000000, 0.000000000000000000, 0.000000000000000000 ) ) ;
#11 =( NAMED_UNIT ( * ) SI_UNIT ( $, .STERADIAN. ) SOLID_ANGLE_UNIT ( ) );
#12 = CIRCLE ( 'NONE', #80, 3.500000000000000000 ) ;
#13 = CARTESIAN_POINT ( 'NONE',  ( -3.500000000000000000, 0.000000000000000000, 5.000000000000000000 ) ) ;
#14 = DIRECTION ( 'NONE',  ( 0.000000000000000000, 0.000000000000000000, 1.000000000000000000 ) ) ;
#15 = CARTESIAN_POINT ( 'NONE',  ( 0.000000000000000000, 0.000000000000000000, 125.0000000000000000 ) ) ;
#16 = DIRECTION ( 'NONE',  ( 0.000000000000000000, 0.000000000000000000, 1.000000000000000000 ) ) ;
#17 = PERSON_AND_ORGANIZATION_ROLE ( 'creator' ) ;
#18 = ORIENTED_EDGE ( 'NONE', *, *, #228, .T. ) ;
#19 = PRODUCT_RELATED_PRODUCT_CATEGORY ( 'detail', '', ( #190 ) ) ;
#20 = ORIENTED_EDGE ( 'NONE', *, *, #87, .T. ) ;
#21 = MECHANICAL_CONTEXT ( 'NONE', #35, 'mechanical' ) ;
#22 = VERTEX_POINT ( 'NONE', #13 ) ;
#23 = PERSON_AND_ORGANIZATION ( #162, #133 ) ;
#24 = CARTESIAN_POINT ( 'NONE',  ( 0.000000000000000000, 0.000000000000000000, 5.000000000000000000 ) ) ;
#25 = PERSON_AND_ORGANIZATION_ROLE ( 'classification_officer' ) ;
#26 = EDGE_CURVE ( 'NONE', #210, #149, #178, .T. ) ;
#27 = DIRECTION ( 'NONE',  ( 1.000000000000000000, 0.000000000000000000, 0.000000000000000000 ) ) ;
#28 = CIRCLE ( 'NONE', #171, 3.500000000000000000 ) ;
#29 = CIRCLE ( 'NONE', #175, 6.000000000000000888 ) ;
#30 = CARTESIAN_POINT ( 'NONE',  ( 6.000000000000000888, 7.347880794884120722E-16, 0.000000000000000000 ) ) ;
#31 = AXIS2_PLACEMENT_3D ( 'NONE', #32, #14, #116 ) ;
#32 = CARTESIAN_POINT ( 'NONE',  ( 0.000000000000000000, 0.000000000000000000, 0.000000000000000000 ) ) ;
#33 = PLANE ( 'NONE',  #31 ) ;
#34 = AXIS2_PLACEMENT_3D ( 'NONE', #185, #16, #229 ) ;
#35 = APPLICATION_CONTEXT ( 'configuration controlled 3d designs of mechanical parts and assemblies' ) ;
#36 = EDGE_CURVE ( 'NONE', #216, #184, #238, .T. ) ;
#37 = LOCAL_TIME ( 13, 5, 56.00000000000000000, #93 ) ;
#38 = CARTESIAN_POINT ( 'NONE',  ( 0.000000000000000000, 0.000000000000000000, 0.000000000000000000 ) ) ;
#39 = LINE ( 'NONE', #125, #118 ) ;
#40 = DIRECTION ( 'NONE',  ( -0.000000000000000000, -0.000000000000000000, -1.000000000000000000 ) ) ;
#41 = CLOSED_SHELL ( 'NONE', ( #119, #139, #236, #172, #246, #9, #54 ) ) ;
#42 = CARTESIAN_POINT ( 'NONE',  ( 6.000000000000000888, 7.347880794884120722E-16, 5.000000000000000000 ) ) ;
#43 = EDGE_CURVE ( 'NONE', #89, #216, #245, .T. ) ;
#44 = CARTESIAN_POINT ( 'NONE',  ( 6.000000000000000888, 7.347880794884120722E-16, 5.000000000000000000 ) ) ;
#45 = APPLICATION_CONTEXT ( 'configuration controlled 3d designs of mechanical parts and assemblies' ) ;
#46 = DIRECTION ( 'NONE',  ( 0.000000000000000000, 0.000000000000000000, 1.000000000000000000 ) ) ;
#47 = DIRECTION ( 'NONE',  ( -0.000000000000000000, -0.000000000000000000, -1.000000000000000000 ) ) ;
#48 = ORIENTED_EDGE ( 'NONE', *, *, #50, .T. ) ;
#49 = CALENDAR_DATE ( 2023, 12, 2 ) ;
#50 = EDGE_CURVE ( 'NONE', #89, #174, #52, .T. ) ;
#51 = FACE_OUTER_BOUND ( 'NONE', #4, .T. ) ;
#52 = CIRCLE ( 'NONE', #231, 6.000000000000000888 ) ;
#53 = DATE_AND_TIME ( #83, #225 ) ;
#54 = ADVANCED_FACE ( 'NONE', ( #200 ), #202, .T. ) ;
#55 = LOCAL_TIME ( 13, 5, 56.00000000000000000, #68 ) ;
#56 = PERSON_AND_ORGANIZATION ( #162, #133 ) ;
#57 = DIRECTION ( 'NONE',  ( 1.000000000000000000, 0.000000000000000000, 0.000000000000000000 ) ) ;
#58 = ORIENTED_EDGE ( 'NONE', *, *, #103, .T. ) ;
#59 = AXIS2_PLACEMENT_3D ( 'NONE', #124, #40, #237 ) ;
#60 = EDGE_LOOP ( 'NONE', ( #196, #58 ) ) ;
#61 = PERSON_AND_ORGANIZATION_ROLE ( 'creator' ) ;
#62 = ORIENTED_EDGE ( 'NONE', *, *, #43, .T. ) ;
#63 = PERSON_AND_ORGANIZATION ( #162, #133 ) ;
#64 = ORIENTED_EDGE ( 'NONE', *, *, #130, .F. ) ;
#65 = CC_DESIGN_PERSON_AND_ORGANIZATION_ASSIGNMENT ( #106, #25, ( #168 ) ) ;
#66 = ORIENTED_EDGE ( 'NONE', *, *, #130, .T. ) ;
#67 = CC_DESIGN_APPROVAL ( #126, ( #168 ) ) ;
#68 = COORDINATED_UNIVERSAL_TIME_OFFSET ( 1, 0, .AHEAD. ) ;
#69 = DIRECTION ( 'NONE',  ( 1.000000000000000000, 0.000000000000000000, 0.000000000000000000 ) ) ;
#70 = DIRECTION ( 'NONE',  ( 1.000000000000000000, 0.000000000000000000, 0.000000000000000000 ) ) ;
#71 = DIRECTION ( 'NONE',  ( 1.000000000000000000, 0.000000000000000000, 0.000000000000000000 ) ) ;
#72 = CC_DESIGN_APPROVAL ( #167, ( #96 ) ) ;
#73 = PRODUCT_DEFINITION_SHAPE ( 'NONE', 'NONE',  #96 ) ;
#74 = DIRECTION ( 'NONE',  ( -1.000000000000000000, 0.000000000000000000, 0.000000000000000000 ) ) ;
#75 = AXIS2_PLACEMENT_3D ( 'NONE', #177, #219, #69 ) ;
#76 = DIRECTION ( 'NONE',  ( 0.000000000000000000, 0.000000000000000000, 1.000000000000000000 ) ) ;
#77 = APPROVAL_ROLE ( '' ) ;
#78 = EDGE_CURVE ( 'NONE', #174, #184, #39, .T. ) ;
#79 = APPROVAL_ROLE ( '' ) ;
#80 = AXIS2_PLACEMENT_3D ( 'NONE', #127, #111, #27 ) ;
#81 = APPROVAL_ROLE ( '' ) ;
#82 = VECTOR ( 'NONE', #131, 1000.000000000000000 ) ;
#83 = CALENDAR_DATE ( 2023, 12, 2 ) ;
#84 = ORIENTED_EDGE ( 'NONE', *, *, #209, .T. ) ;
#85 = APPROVAL_PERSON_ORGANIZATION ( #108, #126, #77 ) ;
#86 = EDGE_LOOP ( 'NONE', ( #84, #48 ) ) ;
#87 = EDGE_CURVE ( 'NONE', #184, #216, #147, .T. ) ;
#88 = FACE_OUTER_BOUND ( 'NONE', #153, .T. ) ;
#89 = VERTEX_POINT ( 'NONE', #42 ) ;
#90 = CARTESIAN_POINT ( 'NONE',  ( 3.500000000000000000, 4.286263797015736595E-16, 125.0000000000000000 ) ) ;
#91 = CC_DESIGN_PERSON_AND_ORGANIZATION_ASSIGNMENT ( #56, #102, ( #190 ) ) ;
#92 = CARTESIAN_POINT ( 'NONE',  ( 3.500000000000000000, 4.286263797015736595E-16, 125.0000000000000000 ) ) ;
#93 = COORDINATED_UNIVERSAL_TIME_OFFSET ( 1, 0, .AHEAD. ) ;
#94 = CC_DESIGN_SECURITY_CLASSIFICATION ( #168, ( #203 ) ) ;
#95 = CARTESIAN_POINT ( 'NONE',  ( 0.000000000000000000, 0.000000000000000000, 5.000000000000000000 ) ) ;
#96 = PRODUCT_DEFINITION ( 'NEZNÁMÝ', '', #203, #233 ) ;
#97 = DIRECTION ( 'NONE',  ( 1.000000000000000000, 0.000000000000000000, 0.000000000000000000 ) ) ;
#98 = DIRECTION ( 'NONE',  ( 0.000000000000000000, 0.000000000000000000, 1.000000000000000000 ) ) ;
#99 = EDGE_CURVE ( 'NONE', #210, #22, #112, .T. ) ;
#100 = COORDINATED_UNIVERSAL_TIME_OFFSET ( 1, 0, .AHEAD. ) ;
#101 = CC_DESIGN_APPROVAL ( #250, ( #203 ) ) ;
#102 = PERSON_AND_ORGANIZATION_ROLE ( 'design_owner' ) ;
#103 = EDGE_CURVE ( 'NONE', #149, #210, #12, .T. ) ;
#104 = CARTESIAN_POINT ( 'NONE',  ( 0.000000000000000000, 0.000000000000000000, 125.0000000000000000 ) ) ;
#105 = APPROVAL_STATUS ( 'not_yet_approved' ) ;
#106 = PERSON_AND_ORGANIZATION ( #162, #133 ) ;
#107 = ORIENTED_EDGE ( 'NONE', *, *, #36, .T. ) ;
#108 = PERSON_AND_ORGANIZATION ( #162, #133 ) ;
#109 = CYLINDRICAL_SURFACE ( 'NONE', #59, 3.500000000000000000 ) ;
#110 = ORIENTED_EDGE ( 'NONE', *, *, #99, .F. ) ;
#111 = DIRECTION ( 'NONE',  ( 0.000000000000000000, 0.000000000000000000, 1.000000000000000000 ) ) ;
#112 = LINE ( 'NONE', #247, #213 ) ;
#113 = CARTESIAN_POINT ( 'NONE',  ( 0.000000000000000000, 0.000000000000000000, 125.0000000000000000 ) ) ;
#114 = CC_DESIGN_PERSON_AND_ORGANIZATION_ASSIGNMENT ( #169, #61, ( #96 ) ) ;
#115 = FACE_OUTER_BOUND ( 'NONE', #199, .T. ) ;
#116 = DIRECTION ( 'NONE',  ( 1.000000000000000000, 0.000000000000000000, -0.000000000000000000 ) ) ;
#117 = PERSON_AND_ORGANIZATION_ROLE ( 'design_supplier' ) ;
#118 = VECTOR ( 'NONE', #197, 1000.000000000000000 ) ;
#119 = ADVANCED_FACE ( 'NONE', ( #88 ), #109, .T. ) ;
#120 = EDGE_LOOP ( 'NONE', ( #155, #176 ) ) ;
#121 = ORIENTED_EDGE ( 'NONE', *, *, #123, .T. ) ;
#122 = EDGE_LOOP ( 'NONE', ( #193, #62, #107, #239 ) ) ;
#123 = EDGE_CURVE ( 'NONE', #151, #22, #28, .T. ) ;
#124 = CARTESIAN_POINT ( 'NONE',  ( 0.000000000000000000, 0.000000000000000000, 125.0000000000000000 ) ) ;
#125 = CARTESIAN_POINT ( 'NONE',  ( -6.000000000000000888, 0.000000000000000000, 5.000000000000000000 ) ) ;
#126 = APPROVAL ( #226, 'NEURÈENÝ' ) ;
#127 = CARTESIAN_POINT ( 'NONE',  ( 0.000000000000000000, 0.000000000000000000, 125.0000000000000000 ) ) ;
#128 = DIRECTION ( 'NONE',  ( -0.000000000000000000, -0.000000000000000000, -1.000000000000000000 ) ) ;
#129 = CARTESIAN_POINT ( 'NONE',  ( 0.000000000000000000, 0.000000000000000000, 5.000000000000000000 ) ) ;
#130 = EDGE_CURVE ( 'NONE', #149, #151, #6, .T. ) ;
#131 = DIRECTION ( 'NONE',  ( -0.000000000000000000, -0.000000000000000000, -1.000000000000000000 ) ) ;
#132 = APPLICATION_PROTOCOL_DEFINITION ( 'international standard', 'config_control_design', 1994, #35 ) ;
#133 = ORGANIZATION ( 'NEURÈENÝ', 'NEURÈENÝ', '' ) ;
#134 = CARTESIAN_POINT ( 'NONE',  ( -3.500000000000000000, 0.000000000000000000, 125.0000000000000000 ) ) ;
#135 =( NAMED_UNIT ( * ) PLANE_ANGLE_UNIT ( ) SI_UNIT ( $, .RADIAN. ) );
#136 = CYLINDRICAL_SURFACE ( 'NONE', #215, 6.000000000000000888 ) ;
#137 = AXIS2_PLACEMENT_3D ( 'NONE', #95, #76, #248 ) ;
#138 = SECURITY_CLASSIFICATION_LEVEL ( 'unclassified' ) ;
#139 = ADVANCED_FACE ( 'NONE', ( #8 ), #158, .T. ) ;
#140 = ORIENTED_EDGE ( 'NONE', *, *, #78, .T. ) ;
#141 = CALENDAR_DATE ( 2023, 12, 2 ) ;
#142 = CALENDAR_DATE ( 2023, 12, 2 ) ;
#143 = DATE_TIME_ROLE ( 'classification_date' ) ;
#144 = DIRECTION ( 'NONE',  ( 0.000000000000000000, 0.000000000000000000, 1.000000000000000000 ) ) ;
#145 = DATE_AND_TIME ( #49, #37 ) ;
#146 = SHAPE_DEFINITION_REPRESENTATION ( #73, #230 ) ;
#147 = CIRCLE ( 'NONE', #75, 6.000000000000000888 ) ;
#148 = APPROVAL_DATE_TIME ( #211, #250 ) ;
#149 = VERTEX_POINT ( 'NONE', #92 ) ;
#150 = APPLICATION_PROTOCOL_DEFINITION ( 'international standard', 'config_control_design', 1994, #45 ) ;
#151 = VERTEX_POINT ( 'NONE', #160 ) ;
#152 = APPROVAL_DATE_TIME ( #53, #167 ) ;
#153 = EDGE_LOOP ( 'NONE', ( #192, #66, #121, #110 ) ) ;
#154 = COORDINATED_UNIVERSAL_TIME_OFFSET ( 1, 0, .AHEAD. ) ;
#155 = ORIENTED_EDGE ( 'NONE', *, *, #87, .F. ) ;
#156 =( GEOMETRIC_REPRESENTATION_CONTEXT ( 3 ) GLOBAL_UNCERTAINTY_ASSIGNED_CONTEXT ( ( #252 ) ) GLOBAL_UNIT_ASSIGNED_CONTEXT ( ( #227, #135, #11 ) ) REPRESENTATION_CONTEXT ( 'NONE', 'WORKASPACE' ) );
#157 = ORIENTED_EDGE ( 'NONE', *, *, #99, .T. ) ;
#158 = CYLINDRICAL_SURFACE ( 'NONE', #3, 6.000000000000000888 ) ;
#159 = DATE_AND_TIME ( #179, #55 ) ;
#160 = CARTESIAN_POINT ( 'NONE',  ( 3.500000000000000000, 4.286263797015736595E-16, 5.000000000000000000 ) ) ;
#161 = CARTESIAN_POINT ( 'NONE',  ( 0.000000000000000000, 0.000000000000000000, 5.000000000000000000 ) ) ;
#162 = PERSON ( 'NEURÈENÝ', 'NEURÈENÝ', 'NEURÈENÝ', ('NEURÈENÝ'), ('NEURÈENÝ'), ('NEURÈENÝ') ) ;
#163 = DIRECTION ( 'NONE',  ( -0.000000000000000000, -0.000000000000000000, -1.000000000000000000 ) ) ;
#164 = APPROVAL_PERSON_ORGANIZATION ( #63, #250, #79 ) ;
#165 = CARTESIAN_POINT ( 'NONE',  ( -6.000000000000000888, 0.000000000000000000, 0.000000000000000000 ) ) ;
#166 = CARTESIAN_POINT ( 'NONE',  ( 0.000000000000000000, 0.000000000000000000, 5.000000000000000000 ) ) ;
#167 = APPROVAL ( #255, 'NEURÈENÝ' ) ;
#168 = SECURITY_CLASSIFICATION ( '', '', #138 ) ;
#169 = PERSON_AND_ORGANIZATION ( #162, #133 ) ;
#170 = COORDINATED_UNIVERSAL_TIME_OFFSET ( 1, 0, .AHEAD. ) ;
#171 = AXIS2_PLACEMENT_3D ( 'NONE', #24, #198, #217 ) ;
#172 = ADVANCED_FACE ( 'NONE', ( #183, #187 ), #244, .T. ) ;
#173 = AXIS2_PLACEMENT_3D ( 'NONE', #206, #46, #70 ) ;
#174 = VERTEX_POINT ( 'NONE', #222 ) ;
#175 = AXIS2_PLACEMENT_3D ( 'NONE', #129, #98, #201 ) ;
#176 = ORIENTED_EDGE ( 'NONE', *, *, #36, .F. ) ;
#177 = CARTESIAN_POINT ( 'NONE',  ( 0.000000000000000000, 0.000000000000000000, 0.000000000000000000 ) ) ;
#178 = CIRCLE ( 'NONE', #224, 3.500000000000000000 ) ;
#179 = CALENDAR_DATE ( 2023, 12, 2 ) ;
#180 = DIRECTION ( 'NONE',  ( -0.000000000000000000, -0.000000000000000000, -1.000000000000000000 ) ) ;
#181 = DIRECTION ( 'NONE',  ( -1.000000000000000000, 0.000000000000000000, 0.000000000000000000 ) ) ;
#182 = ORIENTED_EDGE ( 'NONE', *, *, #43, .F. ) ;
#183 = FACE_BOUND ( 'NONE', #5, .T. ) ;
#184 = VERTEX_POINT ( 'NONE', #165 ) ;
#185 = CARTESIAN_POINT ( 'NONE',  ( 0.000000000000000000, 0.000000000000000000, 5.000000000000000000 ) ) ;
#186 = CC_DESIGN_DATE_AND_TIME_ASSIGNMENT ( #208, #235, ( #96 ) ) ;
#187 = FACE_OUTER_BOUND ( 'NONE', #86, .T. ) ;
#188 = APPROVAL_PERSON_ORGANIZATION ( #23, #167, #81 ) ;
#189 = PERSON_AND_ORGANIZATION ( #162, #133 ) ;
#190 = PRODUCT ( '3ea2', '3ea2', '', ( #21 ) ) ;
#191 = CC_DESIGN_PERSON_AND_ORGANIZATION_ASSIGNMENT ( #251, #117, ( #203 ) ) ;
#192 = ORIENTED_EDGE ( 'NONE', *, *, #103, .F. ) ;
#193 = ORIENTED_EDGE ( 'NONE', *, *, #50, .F. ) ;
#194 = DIRECTION ( 'NONE',  ( 0.000000000000000000, 0.000000000000000000, 1.000000000000000000 ) ) ;
#195 = AXIS2_PLACEMENT_3D ( 'NONE', #113, #163, #181 ) ;
#196 = ORIENTED_EDGE ( 'NONE', *, *, #26, .T. ) ;
#197 = DIRECTION ( 'NONE',  ( -0.000000000000000000, -0.000000000000000000, -1.000000000000000000 ) ) ;
#198 = DIRECTION ( 'NONE',  ( 0.000000000000000000, 0.000000000000000000, 1.000000000000000000 ) ) ;
#199 = EDGE_LOOP ( 'NONE', ( #64, #7, #157, #18 ) ) ;
#200 = FACE_OUTER_BOUND ( 'NONE', #60, .T. ) ;
#201 = DIRECTION ( 'NONE',  ( 1.000000000000000000, 0.000000000000000000, 0.000000000000000000 ) ) ;
#202 = PLANE ( 'NONE',  #253 ) ;
#203 = PRODUCT_DEFINITION_FORMATION_WITH_SPECIFIED_SOURCE ( 'LIBOVOLNÝ', '', #190, .NOT_KNOWN. ) ;
#204 = CYLINDRICAL_SURFACE ( 'NONE', #195, 3.500000000000000000 ) ;
#205 = FACE_OUTER_BOUND ( 'NONE', #120, .T. ) ;
#206 = CARTESIAN_POINT ( 'NONE',  ( 0.000000000000000000, 0.000000000000000000, 0.000000000000000000 ) ) ;
#207 = LOCAL_TIME ( 13, 5, 56.00000000000000000, #154 ) ;
#208 = DATE_AND_TIME ( #141, #207 ) ;
#209 = EDGE_CURVE ( 'NONE', #174, #89, #29, .T. ) ;
#210 = VERTEX_POINT ( 'NONE', #134 ) ;
#211 = DATE_AND_TIME ( #142, #254 ) ;
#212 = CC_DESIGN_PERSON_AND_ORGANIZATION_ASSIGNMENT ( #189, #17, ( #203 ) ) ;
#213 = VECTOR ( 'NONE', #223, 1000.000000000000000 ) ;
#214 = DIRECTION ( 'NONE',  ( 1.000000000000000000, 0.000000000000000000, -0.000000000000000000 ) ) ;
#215 = AXIS2_PLACEMENT_3D ( 'NONE', #166, #47, #74 ) ;
#216 = VERTEX_POINT ( 'NONE', #30 ) ;
#217 = DIRECTION ( 'NONE',  ( 1.000000000000000000, 0.000000000000000000, 0.000000000000000000 ) ) ;
#218 = CIRCLE ( 'NONE', #137, 3.500000000000000000 ) ;
#219 = DIRECTION ( 'NONE',  ( 0.000000000000000000, 0.000000000000000000, 1.000000000000000000 ) ) ;
#220 = APPROVAL_DATE_TIME ( #145, #126 ) ;
#221 = MANIFOLD_SOLID_BREP ( 'Pøidat vysunutím3', #41 ) ;
#222 = CARTESIAN_POINT ( 'NONE',  ( -6.000000000000000888, 0.000000000000000000, 5.000000000000000000 ) ) ;
#223 = DIRECTION ( 'NONE',  ( -0.000000000000000000, -0.000000000000000000, -1.000000000000000000 ) ) ;
#224 = AXIS2_PLACEMENT_3D ( 'NONE', #15, #249, #97 ) ;
#225 = LOCAL_TIME ( 13, 5, 56.00000000000000000, #100 ) ;
#226 = APPROVAL_STATUS ( 'not_yet_approved' ) ;
#227 =( LENGTH_UNIT ( ) NAMED_UNIT ( * ) SI_UNIT ( .MILLI., .METRE. ) );
#228 = EDGE_CURVE ( 'NONE', #22, #151, #218, .T. ) ;
#229 = DIRECTION ( 'NONE',  ( 1.000000000000000000, 0.000000000000000000, -0.000000000000000000 ) ) ;
#230 = ADVANCED_BREP_SHAPE_REPRESENTATION ( '3ea2', ( #221, #232 ), #156 ) ;
#231 = AXIS2_PLACEMENT_3D ( 'NONE', #161, #243, #71 ) ;
#232 = AXIS2_PLACEMENT_3D ( 'NONE', #38, #194, #57 ) ;
#233 = DESIGN_CONTEXT ( 'detailed design', #45, 'design' ) ;
#234 = ORIENTED_EDGE ( 'NONE', *, *, #123, .F. ) ;
#235 = DATE_TIME_ROLE ( 'creation_date' ) ;
#236 = ADVANCED_FACE ( 'NONE', ( #51 ), #136, .T. ) ;
#237 = DIRECTION ( 'NONE',  ( -1.000000000000000000, 0.000000000000000000, 0.000000000000000000 ) ) ;
#238 = CIRCLE ( 'NONE', #173, 6.000000000000000888 ) ;
#239 = ORIENTED_EDGE ( 'NONE', *, *, #78, .F. ) ;
#240 = VECTOR ( 'NONE', #128, 1000.000000000000000 ) ;
#241 = ORIENTED_EDGE ( 'NONE', *, *, #209, .F. ) ;
#242 = CARTESIAN_POINT ( 'NONE',  ( 0.000000000000000000, 0.000000000000000000, 5.000000000000000000 ) ) ;
#243 = DIRECTION ( 'NONE',  ( 0.000000000000000000, 0.000000000000000000, 1.000000000000000000 ) ) ;
#244 = PLANE ( 'NONE',  #34 ) ;
#245 = LINE ( 'NONE', #44, #82 ) ;
#246 = ADVANCED_FACE ( 'NONE', ( #205 ), #33, .F. ) ;
#247 = CARTESIAN_POINT ( 'NONE',  ( -3.500000000000000000, 0.000000000000000000, 125.0000000000000000 ) ) ;
#248 = DIRECTION ( 'NONE',  ( 1.000000000000000000, 0.000000000000000000, 0.000000000000000000 ) ) ;
#249 = DIRECTION ( 'NONE',  ( 0.000000000000000000, 0.000000000000000000, 1.000000000000000000 ) ) ;
#250 = APPROVAL ( #105, 'NEURÈENÝ' ) ;
#251 = PERSON_AND_ORGANIZATION ( #162, #133 ) ;
#252 = UNCERTAINTY_MEASURE_WITH_UNIT (LENGTH_MEASURE( 1.000000000000000082E-05 ), #227, 'distance_accuracy_value', 'NONE');
#253 = AXIS2_PLACEMENT_3D ( 'NONE', #104, #144, #214 ) ;
#254 = LOCAL_TIME ( 13, 5, 56.00000000000000000, #170 ) ;
#255 = APPROVAL_STATUS ( 'not_yet_approved' ) ;
ENDSEC;
END-ISO-10303-21;
