ISO-10303-21;
HEADER;
FILE_DESCRIPTION (( 'STEP AP203' ),
    '1' );
FILE_NAME ('af11.STEP',
    '2023-02-12T10:30:54',
    ( '' ),
    ( '' ),
    'SwSTEP 2.0',
    'SolidWorks 2019',
    '' );
FILE_SCHEMA (( 'CONFIG_CONTROL_DESIGN' ));
ENDSEC;

DATA;
#1 = DATE_AND_TIME ( #218, #232 ) ;
#2 = AXIS2_PLACEMENT_3D ( 'NONE', #100, #87, #252 ) ;
#3 = EDGE_LOOP ( 'NONE', ( #7, #197 ) ) ;
#4 = ORIENTED_EDGE ( 'NONE', *, *, #200, .T. ) ;
#5 = CARTESIAN_POINT ( 'NONE',  ( 0.000000000000000000, 0.000000000000000000, 0.000000000000000000 ) ) ;
#6 = EDGE_CURVE ( 'NONE', #143, #192, #253, .T. ) ;
#7 = ORIENTED_EDGE ( 'NONE', *, *, #242, .F. ) ;
#8 = CARTESIAN_POINT ( 'NONE',  ( 0.000000000000000000, 0.000000000000000000, 0.000000000000000000 ) ) ;
#9 = PLANE ( 'NONE',  #56 ) ;
#10 = PRODUCT_DEFINITION_FORMATION_WITH_SPECIFIED_SOURCE ( 'LIBOVOLNÝ', '', #177, .NOT_KNOWN. ) ;
#11 = DIRECTION ( 'NONE',  ( 0.000000000000000000, 0.000000000000000000, 1.000000000000000000 ) ) ;
#12 = VECTOR ( 'NONE', #206, 1000.000000000000000 ) ;
#13 = DIRECTION ( 'NONE',  ( 0.000000000000000000, 0.000000000000000000, 1.000000000000000000 ) ) ;
#14 = DIRECTION ( 'NONE',  ( -0.000000000000000000, -0.000000000000000000, -1.000000000000000000 ) ) ;
#15 = DIRECTION ( 'NONE',  ( 0.000000000000000000, 0.000000000000000000, 1.000000000000000000 ) ) ;
#16 = CYLINDRICAL_SURFACE ( 'NONE', #86, 16.00000000000000000 ) ;
#17 = AXIS2_PLACEMENT_3D ( 'NONE', #36, #214, #154 ) ;
#18 = CC_DESIGN_DATE_AND_TIME_ASSIGNMENT ( #93, #239, ( #79 ) ) ;
#19 = AXIS2_PLACEMENT_3D ( 'NONE', #234, #116, #205 ) ;
#20 = EDGE_LOOP ( 'NONE', ( #47, #236 ) ) ;
#21 = PERSON_AND_ORGANIZATION ( #191, #37 ) ;
#22 = AXIS2_PLACEMENT_3D ( 'NONE', #167, #124, #174 ) ;
#23 = LINE ( 'NONE', #51, #194 ) ;
#24 = PRODUCT_DEFINITION_SHAPE ( 'NONE', 'NONE',  #223 ) ;
#25 = ORIENTED_EDGE ( 'NONE', *, *, #111, .F. ) ;
#26 = PERSON_AND_ORGANIZATION ( #191, #37 ) ;
#27 = EDGE_CURVE ( 'NONE', #143, #212, #181, .T. ) ;
#28 = APPROVAL_PERSON_ORGANIZATION ( #153, #210, #228 ) ;
#29 = AXIS2_PLACEMENT_3D ( 'NONE', #186, #71, #84 ) ;
#30 = EDGE_LOOP ( 'NONE', ( #123, #103 ) ) ;
#31 = SECURITY_CLASSIFICATION_LEVEL ( 'unclassified' ) ;
#32 = ADVANCED_FACE ( 'NONE', ( #101 ), #39, .T. ) ;
#33 = APPROVAL_ROLE ( '' ) ;
#34 = DESIGN_CONTEXT ( 'detailed design', #118, 'design' ) ;
#35 = AXIS2_PLACEMENT_3D ( 'NONE', #179, #15, #189 ) ;
#36 = CARTESIAN_POINT ( 'NONE',  ( 0.000000000000000000, 0.000000000000000000, 10.00000000000000000 ) ) ;
#37 = ORGANIZATION ( 'NEURÈENÝ', 'NEURÈENÝ', '' ) ;
#38 = CC_DESIGN_APPROVAL ( #89, ( #79 ) ) ;
#39 = CYLINDRICAL_SURFACE ( 'NONE', #49, 16.00000000000000000 ) ;
#40 = CARTESIAN_POINT ( 'NONE',  ( 12.50000000000000000, 1.530808498934191127E-15, 10.00000000000000000 ) ) ;
#41 = DIRECTION ( 'NONE',  ( 1.000000000000000000, 0.000000000000000000, 0.000000000000000000 ) ) ;
#42 = CYLINDRICAL_SURFACE ( 'NONE', #29, 12.50000000000000000 ) ;
#43 = CIRCLE ( 'NONE', #73, 12.50000000000000000 ) ;
#44 = CARTESIAN_POINT ( 'NONE',  ( 0.000000000000000000, 0.000000000000000000, 10.00000000000000000 ) ) ;
#45 = CALENDAR_DATE ( 2023, 12, 2 ) ;
#46 = CC_DESIGN_PERSON_AND_ORGANIZATION_ASSIGNMENT ( #78, #132, ( #223 ) ) ;
#47 = ORIENTED_EDGE ( 'NONE', *, *, #220, .F. ) ;
#48 = ORIENTED_EDGE ( 'NONE', *, *, #112, .F. ) ;
#49 = AXIS2_PLACEMENT_3D ( 'NONE', #254, #14, #139 ) ;
#50 = CIRCLE ( 'NONE', #17, 16.00000000000000000 ) ;
#51 = CARTESIAN_POINT ( 'NONE',  ( 16.00000000000000000, 1.959434878635765131E-15, 10.00000000000000000 ) ) ;
#52 = EDGE_LOOP ( 'NONE', ( #76, #168, #211, #25 ) ) ;
#53 = PERSON_AND_ORGANIZATION ( #191, #37 ) ;
#54 = ORIENTED_EDGE ( 'NONE', *, *, #112, .T. ) ;
#55 = CALENDAR_DATE ( 2023, 12, 2 ) ;
#56 = AXIS2_PLACEMENT_3D ( 'NONE', #8, #11, #113 ) ;
#57 = LOCAL_TIME ( 11, 30, 54.00000000000000000, #198 ) ;
#58 = ORIENTED_EDGE ( 'NONE', *, *, #156, .F. ) ;
#59 = CARTESIAN_POINT ( 'NONE',  ( 16.00000000000000000, 1.959434878635765131E-15, 0.000000000000000000 ) ) ;
#60 = MECHANICAL_CONTEXT ( 'NONE', #147, 'mechanical' ) ;
#61 = CC_DESIGN_APPROVAL ( #63, ( #10 ) ) ;
#62 = CARTESIAN_POINT ( 'NONE',  ( -12.50000000000000000, 0.000000000000000000, 10.00000000000000000 ) ) ;
#63 = APPROVAL ( #141, 'NEURÈENÝ' ) ;
#64 = CARTESIAN_POINT ( 'NONE',  ( -16.00000000000000000, 0.000000000000000000, 0.000000000000000000 ) ) ;
#65 = ADVANCED_FACE ( 'NONE', ( #165 ), #16, .T. ) ;
#66 = PLANE ( 'NONE',  #35 ) ;
#67 = APPROVAL_DATE_TIME ( #162, #63 ) ;
#68 = FACE_OUTER_BOUND ( 'NONE', #120, .T. ) ;
#69 = DIRECTION ( 'NONE',  ( 0.000000000000000000, 0.000000000000000000, 1.000000000000000000 ) ) ;
#70 = CARTESIAN_POINT ( 'NONE',  ( 16.00000000000000000, 1.959434878635765131E-15, 10.00000000000000000 ) ) ;
#71 = DIRECTION ( 'NONE',  ( -0.000000000000000000, -0.000000000000000000, -1.000000000000000000 ) ) ;
#72 = CARTESIAN_POINT ( 'NONE',  ( 0.000000000000000000, 0.000000000000000000, 10.00000000000000000 ) ) ;
#73 = AXIS2_PLACEMENT_3D ( 'NONE', #157, #13, #233 ) ;
#74 = APPROVAL_DATE_TIME ( #148, #89 ) ;
#75 = ORIENTED_EDGE ( 'NONE', *, *, #111, .T. ) ;
#76 = ORIENTED_EDGE ( 'NONE', *, *, #237, .F. ) ;
#77 = CC_DESIGN_APPROVAL ( #210, ( #223 ) ) ;
#78 = PERSON_AND_ORGANIZATION ( #191, #37 ) ;
#79 = SECURITY_CLASSIFICATION ( '', '', #31 ) ;
#80 = APPROVAL_STATUS ( 'not_yet_approved' ) ;
#81 = DIRECTION ( 'NONE',  ( -0.000000000000000000, -0.000000000000000000, -1.000000000000000000 ) ) ;
#82 = ADVANCED_BREP_SHAPE_REPRESENTATION ( 'af11', ( #151, #190 ), #230 ) ;
#83 = ADVANCED_FACE ( 'NONE', ( #99 ), #42, .T. ) ;
#84 = DIRECTION ( 'NONE',  ( -1.000000000000000000, 0.000000000000000000, 0.000000000000000000 ) ) ;
#85 = FACE_BOUND ( 'NONE', #3, .T. ) ;
#86 = AXIS2_PLACEMENT_3D ( 'NONE', #44, #251, #207 ) ;
#87 = DIRECTION ( 'NONE',  ( 0.000000000000000000, 0.000000000000000000, 1.000000000000000000 ) ) ;
#88 = DIRECTION ( 'NONE',  ( -0.000000000000000000, -0.000000000000000000, -1.000000000000000000 ) ) ;
#89 = APPROVAL ( #80, 'NEURÈENÝ' ) ;
#90 = PERSON_AND_ORGANIZATION_ROLE ( 'creator' ) ;
#91 = AXIS2_PLACEMENT_3D ( 'NONE', #5, #142, #172 ) ;
#92 = APPLICATION_PROTOCOL_DEFINITION ( 'international standard', 'config_control_design', 1994, #118 ) ;
#93 = DATE_AND_TIME ( #226, #57 ) ;
#94 = DIRECTION ( 'NONE',  ( 1.000000000000000000, 0.000000000000000000, -0.000000000000000000 ) ) ;
#95 = ADVANCED_FACE ( 'NONE', ( #221 ), #66, .T. ) ;
#96 = CIRCLE ( 'NONE', #22, 12.50000000000000000 ) ;
#97 = DIRECTION ( 'NONE',  ( 1.000000000000000000, 0.000000000000000000, 0.000000000000000000 ) ) ;
#98 = DIRECTION ( 'NONE',  ( 0.000000000000000000, 0.000000000000000000, 1.000000000000000000 ) ) ;
#99 = FACE_OUTER_BOUND ( 'NONE', #104, .T. ) ;
#100 = CARTESIAN_POINT ( 'NONE',  ( 0.000000000000000000, 0.000000000000000000, 0.000000000000000000 ) ) ;
#101 = FACE_OUTER_BOUND ( 'NONE', #52, .T. ) ;
#102 = CARTESIAN_POINT ( 'NONE',  ( -16.00000000000000000, 0.000000000000000000, 10.00000000000000000 ) ) ;
#103 = ORIENTED_EDGE ( 'NONE', *, *, #6, .T. ) ;
#104 = EDGE_LOOP ( 'NONE', ( #107, #58, #54, #225 ) ) ;
#105 = CC_DESIGN_PERSON_AND_ORGANIZATION_ASSIGNMENT ( #21, #90, ( #10 ) ) ;
#106 = COORDINATED_UNIVERSAL_TIME_OFFSET ( 1, 0, .AHEAD. ) ;
#107 = ORIENTED_EDGE ( 'NONE', *, *, #27, .F. ) ;
#108 = PERSON_AND_ORGANIZATION_ROLE ( 'design_owner' ) ;
#109 = ORIENTED_EDGE ( 'NONE', *, *, #27, .T. ) ;
#110 = VECTOR ( 'NONE', #88, 1000.000000000000000 ) ;
#111 = EDGE_CURVE ( 'NONE', #222, #240, #133, .T. ) ;
#112 = EDGE_CURVE ( 'NONE', #192, #195, #138, .T. ) ;
#113 = DIRECTION ( 'NONE',  ( 1.000000000000000000, 0.000000000000000000, -0.000000000000000000 ) ) ;
#114 = DIRECTION ( 'NONE',  ( -1.000000000000000000, 0.000000000000000000, 0.000000000000000000 ) ) ;
#115 = APPROVAL_DATE_TIME ( #159, #210 ) ;
#116 = DIRECTION ( 'NONE',  ( 0.000000000000000000, 0.000000000000000000, 1.000000000000000000 ) ) ;
#117 = LOCAL_TIME ( 11, 30, 54.00000000000000000, #106 ) ;
#118 = APPLICATION_CONTEXT ( 'configuration controlled 3d designs of mechanical parts and assemblies' ) ;
#119 = EDGE_CURVE ( 'NONE', #212, #195, #43, .T. ) ;
#120 = EDGE_LOOP ( 'NONE', ( #4, #125 ) ) ;
#121 = CLOSED_SHELL ( 'NONE', ( #201, #32, #65, #163, #204, #83, #95 ) ) ;
#122 = EDGE_LOOP ( 'NONE', ( #227, #109, #144, #48 ) ) ;
#123 = ORIENTED_EDGE ( 'NONE', *, *, #156, .T. ) ;
#124 = DIRECTION ( 'NONE',  ( 0.000000000000000000, 0.000000000000000000, 1.000000000000000000 ) ) ;
#125 = ORIENTED_EDGE ( 'NONE', *, *, #237, .T. ) ;
#126 = CC_DESIGN_PERSON_AND_ORGANIZATION_ASSIGNMENT ( #238, #170, ( #79 ) ) ;
#127 = ORIENTED_EDGE ( 'NONE', *, *, #200, .F. ) ;
#128 = FACE_OUTER_BOUND ( 'NONE', #20, .T. ) ;
#129 =( LENGTH_UNIT ( ) NAMED_UNIT ( * ) SI_UNIT ( .MILLI., .METRE. ) );
#130 = COORDINATED_UNIVERSAL_TIME_OFFSET ( 1, 0, .AHEAD. ) ;
#131 = APPLICATION_PROTOCOL_DEFINITION ( 'international standard', 'config_control_design', 1994, #147 ) ;
#132 = PERSON_AND_ORGANIZATION_ROLE ( 'creator' ) ;
#133 = LINE ( 'NONE', #160, #188 ) ;
#134 = CARTESIAN_POINT ( 'NONE',  ( 12.50000000000000000, 1.530808498934191127E-15, 99.99999999999998579 ) ) ;
#135 = CARTESIAN_POINT ( 'NONE',  ( 0.000000000000000000, 0.000000000000000000, 10.00000000000000000 ) ) ;
#136 = PLANE ( 'NONE',  #231 ) ;
#137 = DATE_TIME_ROLE ( 'creation_date' ) ;
#138 = LINE ( 'NONE', #255, #110 ) ;
#139 = DIRECTION ( 'NONE',  ( -1.000000000000000000, 0.000000000000000000, 0.000000000000000000 ) ) ;
#140 = CIRCLE ( 'NONE', #91, 16.00000000000000000 ) ;
#141 = APPROVAL_STATUS ( 'not_yet_approved' ) ;
#142 = DIRECTION ( 'NONE',  ( 0.000000000000000000, 0.000000000000000000, 1.000000000000000000 ) ) ;
#143 = VERTEX_POINT ( 'NONE', #134 ) ;
#144 = ORIENTED_EDGE ( 'NONE', *, *, #119, .T. ) ;
#145 = ORIENTED_EDGE ( 'NONE', *, *, #169, .F. ) ;
#146 = EDGE_LOOP ( 'NONE', ( #145, #127, #75, #171 ) ) ;
#147 = APPLICATION_CONTEXT ( 'configuration controlled 3d designs of mechanical parts and assemblies' ) ;
#148 = DATE_AND_TIME ( #55, #117 ) ;
#149 = AXIS2_PLACEMENT_3D ( 'NONE', #135, #69, #41 ) ;
#150 = PERSON_AND_ORGANIZATION ( #191, #37 ) ;
#151 = MANIFOLD_SOLID_BREP ( 'Pøidat vysunutím3', #121 ) ;
#152 = CC_DESIGN_DATE_AND_TIME_ASSIGNMENT ( #1, #137, ( #223 ) ) ;
#153 = PERSON_AND_ORGANIZATION ( #191, #37 ) ;
#154 = DIRECTION ( 'NONE',  ( 1.000000000000000000, 0.000000000000000000, 0.000000000000000000 ) ) ;
#155 = DIRECTION ( 'NONE',  ( 1.000000000000000000, 0.000000000000000000, 0.000000000000000000 ) ) ;
#156 = EDGE_CURVE ( 'NONE', #192, #143, #217, .T. ) ;
#157 = CARTESIAN_POINT ( 'NONE',  ( 0.000000000000000000, 0.000000000000000000, 10.00000000000000000 ) ) ;
#158 = CARTESIAN_POINT ( 'NONE',  ( 12.50000000000000000, 1.530808498934191127E-15, 99.99999999999998579 ) ) ;
#159 = DATE_AND_TIME ( #247, #182 ) ;
#160 = CARTESIAN_POINT ( 'NONE',  ( -16.00000000000000000, 0.000000000000000000, 10.00000000000000000 ) ) ;
#161 = APPROVAL_PERSON_ORGANIZATION ( #164, #63, #208 ) ;
#162 = DATE_AND_TIME ( #45, #193 ) ;
#163 = ADVANCED_FACE ( 'NONE', ( #85, #68 ), #136, .T. ) ;
#164 = PERSON_AND_ORGANIZATION ( #191, #37 ) ;
#165 = FACE_OUTER_BOUND ( 'NONE', #146, .T. ) ;
#166 = COORDINATED_UNIVERSAL_TIME_OFFSET ( 1, 0, .AHEAD. ) ;
#167 = CARTESIAN_POINT ( 'NONE',  ( 0.000000000000000000, 0.000000000000000000, 10.00000000000000000 ) ) ;
#168 = ORIENTED_EDGE ( 'NONE', *, *, #169, .T. ) ;
#169 = EDGE_CURVE ( 'NONE', #244, #241, #23, .T. ) ;
#170 = PERSON_AND_ORGANIZATION_ROLE ( 'classification_officer' ) ;
#171 = ORIENTED_EDGE ( 'NONE', *, *, #220, .T. ) ;
#172 = DIRECTION ( 'NONE',  ( 1.000000000000000000, 0.000000000000000000, 0.000000000000000000 ) ) ;
#173 = DIRECTION ( 'NONE',  ( 0.000000000000000000, 0.000000000000000000, 1.000000000000000000 ) ) ;
#174 = DIRECTION ( 'NONE',  ( 1.000000000000000000, 0.000000000000000000, 0.000000000000000000 ) ) ;
#175 = CARTESIAN_POINT ( 'NONE',  ( 0.000000000000000000, 0.000000000000000000, 99.99999999999998579 ) ) ;
#176 =( NAMED_UNIT ( * ) PLANE_ANGLE_UNIT ( ) SI_UNIT ( $, .RADIAN. ) );
#177 = PRODUCT ( 'af11', 'af11', '', ( #60 ) ) ;
#178 = AXIS2_PLACEMENT_3D ( 'NONE', #175, #215, #155 ) ;
#179 = CARTESIAN_POINT ( 'NONE',  ( 0.000000000000000000, 0.000000000000000000, 99.99999999999998579 ) ) ;
#180 = APPROVAL_STATUS ( 'not_yet_approved' ) ;
#181 = LINE ( 'NONE', #158, #12 ) ;
#182 = LOCAL_TIME ( 11, 30, 54.00000000000000000, #130 ) ;
#183 = CC_DESIGN_PERSON_AND_ORGANIZATION_ASSIGNMENT ( #53, #243, ( #10 ) ) ;
#184 = DIRECTION ( 'NONE',  ( -0.000000000000000000, -0.000000000000000000, -1.000000000000000000 ) ) ;
#185 = COORDINATED_UNIVERSAL_TIME_OFFSET ( 1, 0, .AHEAD. ) ;
#186 = CARTESIAN_POINT ( 'NONE',  ( 0.000000000000000000, 0.000000000000000000, 99.99999999999998579 ) ) ;
#187 = CC_DESIGN_PERSON_AND_ORGANIZATION_ASSIGNMENT ( #26, #108, ( #177 ) ) ;
#188 = VECTOR ( 'NONE', #184, 1000.000000000000000 ) ;
#189 = DIRECTION ( 'NONE',  ( 1.000000000000000000, 0.000000000000000000, -0.000000000000000000 ) ) ;
#190 = AXIS2_PLACEMENT_3D ( 'NONE', #202, #98, #97 ) ;
#191 = PERSON ( 'NEURÈENÝ', 'NEURÈENÝ', 'NEURÈENÝ', ('NEURÈENÝ'), ('NEURÈENÝ'), ('NEURÈENÝ') ) ;
#192 = VERTEX_POINT ( 'NONE', #199 ) ;
#193 = LOCAL_TIME ( 11, 30, 54.00000000000000000, #166 ) ;
#194 = VECTOR ( 'NONE', #224, 1000.000000000000000 ) ;
#195 = VERTEX_POINT ( 'NONE', #62 ) ;
#196 = CARTESIAN_POINT ( 'NONE',  ( 0.000000000000000000, 0.000000000000000000, 99.99999999999998579 ) ) ;
#197 = ORIENTED_EDGE ( 'NONE', *, *, #119, .F. ) ;
#198 = COORDINATED_UNIVERSAL_TIME_OFFSET ( 1, 0, .AHEAD. ) ;
#199 = CARTESIAN_POINT ( 'NONE',  ( -12.50000000000000000, 0.000000000000000000, 99.99999999999998579 ) ) ;
#200 = EDGE_CURVE ( 'NONE', #222, #244, #50, .T. ) ;
#201 = ADVANCED_FACE ( 'NONE', ( #248 ), #216, .T. ) ;
#202 = CARTESIAN_POINT ( 'NONE',  ( 0.000000000000000000, 0.000000000000000000, 0.000000000000000000 ) ) ;
#203 = CIRCLE ( 'NONE', #149, 16.00000000000000000 ) ;
#204 = ADVANCED_FACE ( 'NONE', ( #128 ), #9, .F. ) ;
#205 = DIRECTION ( 'NONE',  ( 1.000000000000000000, 0.000000000000000000, 0.000000000000000000 ) ) ;
#206 = DIRECTION ( 'NONE',  ( -0.000000000000000000, -0.000000000000000000, -1.000000000000000000 ) ) ;
#207 = DIRECTION ( 'NONE',  ( -1.000000000000000000, 0.000000000000000000, 0.000000000000000000 ) ) ;
#208 = APPROVAL_ROLE ( '' ) ;
#209 = AXIS2_PLACEMENT_3D ( 'NONE', #196, #81, #114 ) ;
#210 = APPROVAL ( #180, 'NEURÈENÝ' ) ;
#211 = ORIENTED_EDGE ( 'NONE', *, *, #246, .T. ) ;
#212 = VERTEX_POINT ( 'NONE', #40 ) ;
#213 = SHAPE_DEFINITION_REPRESENTATION ( #24, #82 ) ;
#214 = DIRECTION ( 'NONE',  ( 0.000000000000000000, 0.000000000000000000, 1.000000000000000000 ) ) ;
#215 = DIRECTION ( 'NONE',  ( 0.000000000000000000, 0.000000000000000000, 1.000000000000000000 ) ) ;
#216 = CYLINDRICAL_SURFACE ( 'NONE', #209, 12.50000000000000000 ) ;
#217 = CIRCLE ( 'NONE', #19, 12.50000000000000000 ) ;
#218 = CALENDAR_DATE ( 2023, 12, 2 ) ;
#219 = CC_DESIGN_SECURITY_CLASSIFICATION ( #79, ( #10 ) ) ;
#220 = EDGE_CURVE ( 'NONE', #240, #241, #235, .T. ) ;
#221 = FACE_OUTER_BOUND ( 'NONE', #30, .T. ) ;
#222 = VERTEX_POINT ( 'NONE', #102 ) ;
#223 = PRODUCT_DEFINITION ( 'NEZNÁMÝ', '', #10, #34 ) ;
#224 = DIRECTION ( 'NONE',  ( -0.000000000000000000, -0.000000000000000000, -1.000000000000000000 ) ) ;
#225 = ORIENTED_EDGE ( 'NONE', *, *, #242, .T. ) ;
#226 = CALENDAR_DATE ( 2023, 12, 2 ) ;
#227 = ORIENTED_EDGE ( 'NONE', *, *, #6, .F. ) ;
#228 = APPROVAL_ROLE ( '' ) ;
#229 =( NAMED_UNIT ( * ) SI_UNIT ( $, .STERADIAN. ) SOLID_ANGLE_UNIT ( ) );
#230 =( GEOMETRIC_REPRESENTATION_CONTEXT ( 3 ) GLOBAL_UNCERTAINTY_ASSIGNED_CONTEXT ( ( #250 ) ) GLOBAL_UNIT_ASSIGNED_CONTEXT ( ( #129, #176, #229 ) ) REPRESENTATION_CONTEXT ( 'NONE', 'WORKASPACE' ) );
#231 = AXIS2_PLACEMENT_3D ( 'NONE', #72, #173, #94 ) ;
#232 = LOCAL_TIME ( 11, 30, 54.00000000000000000, #185 ) ;
#233 = DIRECTION ( 'NONE',  ( 1.000000000000000000, 0.000000000000000000, 0.000000000000000000 ) ) ;
#234 = CARTESIAN_POINT ( 'NONE',  ( 0.000000000000000000, 0.000000000000000000, 99.99999999999998579 ) ) ;
#235 = CIRCLE ( 'NONE', #2, 16.00000000000000000 ) ;
#236 = ORIENTED_EDGE ( 'NONE', *, *, #246, .F. ) ;
#237 = EDGE_CURVE ( 'NONE', #244, #222, #203, .T. ) ;
#238 = PERSON_AND_ORGANIZATION ( #191, #37 ) ;
#239 = DATE_TIME_ROLE ( 'classification_date' ) ;
#240 = VERTEX_POINT ( 'NONE', #64 ) ;
#241 = VERTEX_POINT ( 'NONE', #59 ) ;
#242 = EDGE_CURVE ( 'NONE', #195, #212, #96, .T. ) ;
#243 = PERSON_AND_ORGANIZATION_ROLE ( 'design_supplier' ) ;
#244 = VERTEX_POINT ( 'NONE', #70 ) ;
#245 = APPROVAL_PERSON_ORGANIZATION ( #150, #89, #33 ) ;
#246 = EDGE_CURVE ( 'NONE', #241, #240, #140, .T. ) ;
#247 = CALENDAR_DATE ( 2023, 12, 2 ) ;
#248 = FACE_OUTER_BOUND ( 'NONE', #122, .T. ) ;
#249 = PRODUCT_RELATED_PRODUCT_CATEGORY ( 'detail', '', ( #177 ) ) ;
#250 = UNCERTAINTY_MEASURE_WITH_UNIT (LENGTH_MEASURE( 1.000000000000000082E-05 ), #129, 'distance_accuracy_value', 'NONE');
#251 = DIRECTION ( 'NONE',  ( -0.000000000000000000, -0.000000000000000000, -1.000000000000000000 ) ) ;
#252 = DIRECTION ( 'NONE',  ( 1.000000000000000000, 0.000000000000000000, 0.000000000000000000 ) ) ;
#253 = CIRCLE ( 'NONE', #178, 12.50000000000000000 ) ;
#254 = CARTESIAN_POINT ( 'NONE',  ( 0.000000000000000000, 0.000000000000000000, 10.00000000000000000 ) ) ;
#255 = CARTESIAN_POINT ( 'NONE',  ( -12.50000000000000000, 0.000000000000000000, 99.99999999999998579 ) ) ;
ENDSEC;
END-ISO-10303-21;
