ISO-10303-21;
HEADER;
FILE_DESCRIPTION (( 'STEP AP203' ),
    '1' );
FILE_NAME ('950a.STEP',
    '2023-02-12T12:31:15',
    ( '' ),
    ( '' ),
    'SwSTEP 2.0',
    'SolidWorks 2019',
    '' );
FILE_SCHEMA (( 'CONFIG_CONTROL_DESIGN' ));
ENDSEC;

DATA;
#1 = ADVANCED_FACE ( 'NONE', ( #37 ), #181, .T. ) ;
#2 = CARTESIAN_POINT ( 'NONE',  ( 0.000000000000000000, 0.000000000000000000, 0.000000000000000000 ) ) ;
#3 = ORIENTED_EDGE ( 'NONE', *, *, #121, .F. ) ;
#4 = PERSON_AND_ORGANIZATION_ROLE ( 'creator' ) ;
#5 = AXIS2_PLACEMENT_3D ( 'NONE', #245, #31, #127 ) ;
#6 = FACE_OUTER_BOUND ( 'NONE', #57, .T. ) ;
#7 = LOCAL_TIME ( 13, 31, 15.00000000000000000, #191 ) ;
#8 = CARTESIAN_POINT ( 'NONE',  ( 0.000000000000000000, 0.000000000000000000, 160.0000000000000000 ) ) ;
#9 = VECTOR ( 'NONE', #23, 1000.000000000000000 ) ;
#10 = ADVANCED_FACE ( 'NONE', ( #99, #59 ), #39, .T. ) ;
#11 = CARTESIAN_POINT ( 'NONE',  ( 0.000000000000000000, 0.000000000000000000, 3.000000000000000000 ) ) ;
#12 = DIRECTION ( 'NONE',  ( 1.000000000000000000, 0.000000000000000000, 0.000000000000000000 ) ) ;
#13 = EDGE_CURVE ( 'NONE', #102, #26, #74, .T. ) ;
#14 = ORIENTED_EDGE ( 'NONE', *, *, #248, .T. ) ;
#15 = EDGE_LOOP ( 'NONE', ( #21, #103 ) ) ;
#16 = PERSON_AND_ORGANIZATION ( #138, #130 ) ;
#17 = LOCAL_TIME ( 13, 31, 15.00000000000000000, #212 ) ;
#18 = DESIGN_CONTEXT ( 'detailed design', #152, 'design' ) ;
#19 = ORIENTED_EDGE ( 'NONE', *, *, #111, .T. ) ;
#20 = DIRECTION ( 'NONE',  ( 1.000000000000000000, 0.000000000000000000, 0.000000000000000000 ) ) ;
#21 = ORIENTED_EDGE ( 'NONE', *, *, #13, .F. ) ;
#22 = ORIENTED_EDGE ( 'NONE', *, *, #146, .T. ) ;
#23 = DIRECTION ( 'NONE',  ( -0.000000000000000000, -0.000000000000000000, -1.000000000000000000 ) ) ;
#24 = CIRCLE ( 'NONE', #90, 2.500000000000000000 ) ;
#25 = APPROVAL_PERSON_ORGANIZATION ( #16, #30, #180 ) ;
#26 = VERTEX_POINT ( 'NONE', #154 ) ;
#27 = DIRECTION ( 'NONE',  ( 0.000000000000000000, 0.000000000000000000, 1.000000000000000000 ) ) ;
#28 = CC_DESIGN_APPROVAL ( #225, ( #50 ) ) ;
#29 = FACE_OUTER_BOUND ( 'NONE', #79, .T. ) ;
#30 = APPROVAL ( #97, 'NEURÈENÝ' ) ;
#31 = DIRECTION ( 'NONE',  ( 0.000000000000000000, 0.000000000000000000, 1.000000000000000000 ) ) ;
#32 = CARTESIAN_POINT ( 'NONE',  ( 0.000000000000000000, 0.000000000000000000, 3.000000000000000000 ) ) ;
#33 = PERSON_AND_ORGANIZATION ( #138, #130 ) ;
#34 = DIRECTION ( 'NONE',  ( -0.000000000000000000, -0.000000000000000000, -1.000000000000000000 ) ) ;
#35 = DATE_AND_TIME ( #155, #161 ) ;
#36 = DIRECTION ( 'NONE',  ( 0.000000000000000000, 0.000000000000000000, 1.000000000000000000 ) ) ;
#37 = FACE_OUTER_BOUND ( 'NONE', #132, .T. ) ;
#38 = APPLICATION_PROTOCOL_DEFINITION ( 'international standard', 'config_control_design', 1994, #83 ) ;
#39 = PLANE ( 'NONE',  #186 ) ;
#40 = PERSON_AND_ORGANIZATION ( #138, #130 ) ;
#41 = CARTESIAN_POINT ( 'NONE',  ( 2.500000000000000000, 3.061616997868383141E-16, 160.0000000000000000 ) ) ;
#42 = CARTESIAN_POINT ( 'NONE',  ( -5.000000000000000000, 0.000000000000000000, 3.000000000000000000 ) ) ;
#43 = VECTOR ( 'NONE', #34, 1000.000000000000000 ) ;
#44 = DIRECTION ( 'NONE',  ( 0.000000000000000000, 0.000000000000000000, 1.000000000000000000 ) ) ;
#45 = DIRECTION ( 'NONE',  ( 1.000000000000000000, 0.000000000000000000, -0.000000000000000000 ) ) ;
#46 = DIRECTION ( 'NONE',  ( 0.000000000000000000, 0.000000000000000000, 1.000000000000000000 ) ) ;
#47 = DATE_AND_TIME ( #134, #17 ) ;
#48 = AXIS2_PLACEMENT_3D ( 'NONE', #216, #117, #76 ) ;
#49 = APPROVAL_ROLE ( '' ) ;
#50 = PRODUCT_DEFINITION ( 'NEZNÁMÝ', '', #174, #18 ) ;
#51 = DIRECTION ( 'NONE',  ( -0.000000000000000000, -0.000000000000000000, -1.000000000000000000 ) ) ;
#52 = PERSON_AND_ORGANIZATION_ROLE ( 'creator' ) ;
#53 =( GEOMETRIC_REPRESENTATION_CONTEXT ( 3 ) GLOBAL_UNCERTAINTY_ASSIGNED_CONTEXT ( ( #147 ) ) GLOBAL_UNIT_ASSIGNED_CONTEXT ( ( #231, #254, #58 ) ) REPRESENTATION_CONTEXT ( 'NONE', 'WORKASPACE' ) );
#54 = APPROVAL_STATUS ( 'not_yet_approved' ) ;
#55 = LINE ( 'NONE', #135, #43 ) ;
#56 = EDGE_CURVE ( 'NONE', #217, #253, #206, .T. ) ;
#57 = EDGE_LOOP ( 'NONE', ( #210, #162, #141, #207 ) ) ;
#58 =( NAMED_UNIT ( * ) SI_UNIT ( $, .STERADIAN. ) SOLID_ANGLE_UNIT ( ) );
#59 = FACE_OUTER_BOUND ( 'NONE', #86, .T. ) ;
#60 = DIRECTION ( 'NONE',  ( 1.000000000000000000, 0.000000000000000000, 0.000000000000000000 ) ) ;
#61 = CIRCLE ( 'NONE', #5, 2.500000000000000000 ) ;
#62 = DIRECTION ( 'NONE',  ( -0.000000000000000000, -0.000000000000000000, -1.000000000000000000 ) ) ;
#63 = CARTESIAN_POINT ( 'NONE',  ( 0.000000000000000000, 0.000000000000000000, 3.000000000000000000 ) ) ;
#64 = CARTESIAN_POINT ( 'NONE',  ( 0.000000000000000000, 0.000000000000000000, 3.000000000000000000 ) ) ;
#65 = APPROVAL_PERSON_ORGANIZATION ( #153, #225, #156 ) ;
#66 = CC_DESIGN_PERSON_AND_ORGANIZATION_ASSIGNMENT ( #179, #149, ( #133 ) ) ;
#67 = MANIFOLD_SOLID_BREP ( 'Pøidat vysunutím3', #124 ) ;
#68 = CYLINDRICAL_SURFACE ( 'NONE', #169, 5.000000000000000000 ) ;
#69 = PERSON_AND_ORGANIZATION ( #138, #130 ) ;
#70 = DIRECTION ( 'NONE',  ( -0.000000000000000000, -0.000000000000000000, -1.000000000000000000 ) ) ;
#71 = EDGE_CURVE ( 'NONE', #178, #237, #107, .T. ) ;
#72 = APPROVAL_DATE_TIME ( #91, #182 ) ;
#73 = ORIENTED_EDGE ( 'NONE', *, *, #158, .F. ) ;
#74 = CIRCLE ( 'NONE', #48, 2.500000000000000000 ) ;
#75 = APPLICATION_PROTOCOL_DEFINITION ( 'international standard', 'config_control_design', 1994, #152 ) ;
#76 = DIRECTION ( 'NONE',  ( 1.000000000000000000, 0.000000000000000000, 0.000000000000000000 ) ) ;
#77 = LOCAL_TIME ( 13, 31, 15.00000000000000000, #142 ) ;
#78 = CARTESIAN_POINT ( 'NONE',  ( -2.500000000000000000, 0.000000000000000000, 160.0000000000000000 ) ) ;
#79 = EDGE_LOOP ( 'NONE', ( #139, #214, #14, #234 ) ) ;
#80 = ORIENTED_EDGE ( 'NONE', *, *, #121, .T. ) ;
#81 = EDGE_LOOP ( 'NONE', ( #3, #116 ) ) ;
#82 = DIRECTION ( 'NONE',  ( 0.000000000000000000, 0.000000000000000000, 1.000000000000000000 ) ) ;
#83 = APPLICATION_CONTEXT ( 'configuration controlled 3d designs of mechanical parts and assemblies' ) ;
#84 = VERTEX_POINT ( 'NONE', #232 ) ;
#85 = AXIS2_PLACEMENT_3D ( 'NONE', #2, #195, #20 ) ;
#86 = EDGE_LOOP ( 'NONE', ( #22, #129 ) ) ;
#87 = CALENDAR_DATE ( 2023, 12, 2 ) ;
#88 = APPROVAL_PERSON_ORGANIZATION ( #40, #182, #49 ) ;
#89 = DIRECTION ( 'NONE',  ( 1.000000000000000000, 0.000000000000000000, 0.000000000000000000 ) ) ;
#90 = AXIS2_PLACEMENT_3D ( 'NONE', #32, #112, #12 ) ;
#91 = DATE_AND_TIME ( #92, #7 ) ;
#92 = CALENDAR_DATE ( 2023, 12, 2 ) ;
#93 = CARTESIAN_POINT ( 'NONE',  ( -5.000000000000000000, 0.000000000000000000, 0.000000000000000000 ) ) ;
#94 = ORIENTED_EDGE ( 'NONE', *, *, #113, .F. ) ;
#95 = SECURITY_CLASSIFICATION_LEVEL ( 'unclassified' ) ;
#96 = CC_DESIGN_PERSON_AND_ORGANIZATION_ASSIGNMENT ( #33, #192, ( #174 ) ) ;
#97 = APPROVAL_STATUS ( 'not_yet_approved' ) ;
#98 = AXIS2_PLACEMENT_3D ( 'NONE', #194, #36, #218 ) ;
#99 = FACE_BOUND ( 'NONE', #15, .T. ) ;
#100 = FACE_OUTER_BOUND ( 'NONE', #235, .T. ) ;
#101 = EDGE_CURVE ( 'NONE', #120, #217, #55, .T. ) ;
#102 = VERTEX_POINT ( 'NONE', #168 ) ;
#103 = ORIENTED_EDGE ( 'NONE', *, *, #242, .F. ) ;
#104 = APPROVAL_DATE_TIME ( #47, #225 ) ;
#105 = CYLINDRICAL_SURFACE ( 'NONE', #126, 2.500000000000000000 ) ;
#106 = DIRECTION ( 'NONE',  ( 1.000000000000000000, 0.000000000000000000, 0.000000000000000000 ) ) ;
#107 = CIRCLE ( 'NONE', #177, 2.500000000000000000 ) ;
#108 = CYLINDRICAL_SURFACE ( 'NONE', #247, 2.500000000000000000 ) ;
#109 = CC_DESIGN_APPROVAL ( #30, ( #133 ) ) ;
#110 = FACE_OUTER_BOUND ( 'NONE', #219, .T. ) ;
#111 = EDGE_CURVE ( 'NONE', #237, #178, #61, .T. ) ;
#112 = DIRECTION ( 'NONE',  ( 0.000000000000000000, 0.000000000000000000, 1.000000000000000000 ) ) ;
#113 = EDGE_CURVE ( 'NONE', #120, #84, #240, .T. ) ;
#114 = ORIENTED_EDGE ( 'NONE', *, *, #101, .T. ) ;
#115 = AXIS2_PLACEMENT_3D ( 'NONE', #246, #44, #89 ) ;
#116 = ORIENTED_EDGE ( 'NONE', *, *, #56, .F. ) ;
#117 = DIRECTION ( 'NONE',  ( 0.000000000000000000, 0.000000000000000000, 1.000000000000000000 ) ) ;
#118 = CC_DESIGN_SECURITY_CLASSIFICATION ( #133, ( #174 ) ) ;
#119 = DIRECTION ( 'NONE',  ( 0.000000000000000000, 0.000000000000000000, 1.000000000000000000 ) ) ;
#120 = VERTEX_POINT ( 'NONE', #145 ) ;
#121 = EDGE_CURVE ( 'NONE', #253, #217, #226, .T. ) ;
#122 = MECHANICAL_CONTEXT ( 'NONE', #83, 'mechanical' ) ;
#123 = DIRECTION ( 'NONE',  ( 1.000000000000000000, 0.000000000000000000, 0.000000000000000000 ) ) ;
#124 = CLOSED_SHELL ( 'NONE', ( #205, #230, #1, #10, #184, #213, #249 ) ) ;
#125 = CARTESIAN_POINT ( 'NONE',  ( 0.000000000000000000, 0.000000000000000000, 160.0000000000000000 ) ) ;
#126 = AXIS2_PLACEMENT_3D ( 'NONE', #8, #62, #243 ) ;
#127 = DIRECTION ( 'NONE',  ( 1.000000000000000000, 0.000000000000000000, 0.000000000000000000 ) ) ;
#128 = PRODUCT ( '950a', '950a', '', ( #122 ) ) ;
#129 = ORIENTED_EDGE ( 'NONE', *, *, #113, .T. ) ;
#130 = ORGANIZATION ( 'NEURÈENÝ', 'NEURÈENÝ', '' ) ;
#131 = DATE_TIME_ROLE ( 'classification_date' ) ;
#132 = EDGE_LOOP ( 'NONE', ( #255, #185, #241, #80 ) ) ;
#133 = SECURITY_CLASSIFICATION ( '', '', #95 ) ;
#134 = CALENDAR_DATE ( 2023, 12, 2 ) ;
#135 = CARTESIAN_POINT ( 'NONE',  ( 5.000000000000000000, 6.123233995736766282E-16, 3.000000000000000000 ) ) ;
#136 = APPROVAL_STATUS ( 'not_yet_approved' ) ;
#137 = DIRECTION ( 'NONE',  ( 1.000000000000000000, 0.000000000000000000, -0.000000000000000000 ) ) ;
#138 = PERSON ( 'NEURÈENÝ', 'NEURÈENÝ', 'NEURÈENÝ', ('NEURÈENÝ'), ('NEURÈENÝ'), ('NEURÈENÝ') ) ;
#139 = ORIENTED_EDGE ( 'NONE', *, *, #201, .F. ) ;
#140 = CC_DESIGN_PERSON_AND_ORGANIZATION_ASSIGNMENT ( #69, #52, ( #174 ) ) ;
#141 = ORIENTED_EDGE ( 'NONE', *, *, #242, .T. ) ;
#142 = COORDINATED_UNIVERSAL_TIME_OFFSET ( 1, 0, .AHEAD. ) ;
#143 = DIRECTION ( 'NONE',  ( 1.000000000000000000, 0.000000000000000000, 0.000000000000000000 ) ) ;
#144 = PLANE ( 'NONE',  #173 ) ;
#145 = CARTESIAN_POINT ( 'NONE',  ( 5.000000000000000000, 6.123233995736766282E-16, 3.000000000000000000 ) ) ;
#146 = EDGE_CURVE ( 'NONE', #84, #120, #190, .T. ) ;
#147 = UNCERTAINTY_MEASURE_WITH_UNIT (LENGTH_MEASURE( 1.000000000000000082E-05 ), #231, 'distance_accuracy_value', 'NONE');
#148 = ADVANCED_BREP_SHAPE_REPRESENTATION ( '950a', ( #67, #85 ), #53 ) ;
#149 = PERSON_AND_ORGANIZATION_ROLE ( 'classification_officer' ) ;
#150 = LINE ( 'NONE', #78, #9 ) ;
#151 = CC_DESIGN_PERSON_AND_ORGANIZATION_ASSIGNMENT ( #197, #250, ( #128 ) ) ;
#152 = APPLICATION_CONTEXT ( 'configuration controlled 3d designs of mechanical parts and assemblies' ) ;
#153 = PERSON_AND_ORGANIZATION ( #138, #130 ) ;
#154 = CARTESIAN_POINT ( 'NONE',  ( 2.500000000000000000, 3.061616997868383141E-16, 3.000000000000000000 ) ) ;
#155 = CALENDAR_DATE ( 2023, 12, 2 ) ;
#156 = APPROVAL_ROLE ( '' ) ;
#157 = CARTESIAN_POINT ( 'NONE',  ( 0.000000000000000000, 0.000000000000000000, 3.000000000000000000 ) ) ;
#158 = EDGE_CURVE ( 'NONE', #84, #253, #223, .T. ) ;
#159 = DATE_AND_TIME ( #229, #236 ) ;
#160 = CARTESIAN_POINT ( 'NONE',  ( 0.000000000000000000, 0.000000000000000000, 3.000000000000000000 ) ) ;
#161 = LOCAL_TIME ( 13, 31, 15.00000000000000000, #252 ) ;
#162 = ORIENTED_EDGE ( 'NONE', *, *, #201, .T. ) ;
#163 = PRODUCT_RELATED_PRODUCT_CATEGORY ( 'detail', '', ( #128 ) ) ;
#164 = DATE_TIME_ROLE ( 'creation_date' ) ;
#165 = DIRECTION ( 'NONE',  ( -0.000000000000000000, -0.000000000000000000, -1.000000000000000000 ) ) ;
#166 = AXIS2_PLACEMENT_3D ( 'NONE', #157, #233, #251 ) ;
#167 = CARTESIAN_POINT ( 'NONE',  ( -2.500000000000000000, 0.000000000000000000, 160.0000000000000000 ) ) ;
#168 = CARTESIAN_POINT ( 'NONE',  ( -2.500000000000000000, 0.000000000000000000, 3.000000000000000000 ) ) ;
#169 = AXIS2_PLACEMENT_3D ( 'NONE', #11, #70, #172 ) ;
#170 = DIRECTION ( 'NONE',  ( -1.000000000000000000, 0.000000000000000000, 0.000000000000000000 ) ) ;
#171 = CC_DESIGN_PERSON_AND_ORGANIZATION_ASSIGNMENT ( #200, #4, ( #50 ) ) ;
#172 = DIRECTION ( 'NONE',  ( -1.000000000000000000, 0.000000000000000000, 0.000000000000000000 ) ) ;
#173 = AXIS2_PLACEMENT_3D ( 'NONE', #224, #221, #45 ) ;
#174 = PRODUCT_DEFINITION_FORMATION_WITH_SPECIFIED_SOURCE ( 'LIBOVOLNÝ', '', #128, .NOT_KNOWN. ) ;
#175 = CC_DESIGN_DATE_AND_TIME_ASSIGNMENT ( #35, #131, ( #133 ) ) ;
#176 = DATE_AND_TIME ( #87, #77 ) ;
#177 = AXIS2_PLACEMENT_3D ( 'NONE', #238, #196, #60 ) ;
#178 = VERTEX_POINT ( 'NONE', #167 ) ;
#179 = PERSON_AND_ORGANIZATION ( #138, #130 ) ;
#180 = APPROVAL_ROLE ( '' ) ;
#181 = CYLINDRICAL_SURFACE ( 'NONE', #166, 5.000000000000000000 ) ;
#182 = APPROVAL ( #136, 'NEURÈENÝ' ) ;
#183 = VECTOR ( 'NONE', #202, 1000.000000000000000 ) ;
#184 = ADVANCED_FACE ( 'NONE', ( #244 ), #144, .F. ) ;
#185 = ORIENTED_EDGE ( 'NONE', *, *, #146, .F. ) ;
#186 = AXIS2_PLACEMENT_3D ( 'NONE', #160, #82, #137 ) ;
#187 = PRODUCT_DEFINITION_SHAPE ( 'NONE', 'NONE',  #50 ) ;
#188 = AXIS2_PLACEMENT_3D ( 'NONE', #64, #46, #143 ) ;
#189 = COORDINATED_UNIVERSAL_TIME_OFFSET ( 1, 0, .AHEAD. ) ;
#190 = CIRCLE ( 'NONE', #188, 5.000000000000000000 ) ;
#191 = COORDINATED_UNIVERSAL_TIME_OFFSET ( 1, 0, .AHEAD. ) ;
#192 = PERSON_AND_ORGANIZATION_ROLE ( 'design_supplier' ) ;
#193 = AXIS2_PLACEMENT_3D ( 'NONE', #63, #27, #106 ) ;
#194 = CARTESIAN_POINT ( 'NONE',  ( 0.000000000000000000, 0.000000000000000000, 160.0000000000000000 ) ) ;
#195 = DIRECTION ( 'NONE',  ( 0.000000000000000000, 0.000000000000000000, 1.000000000000000000 ) ) ;
#196 = DIRECTION ( 'NONE',  ( 0.000000000000000000, 0.000000000000000000, 1.000000000000000000 ) ) ;
#197 = PERSON_AND_ORGANIZATION ( #138, #130 ) ;
#198 = ORIENTED_EDGE ( 'NONE', *, *, #56, .T. ) ;
#199 = APPROVAL_DATE_TIME ( #159, #30 ) ;
#200 = PERSON_AND_ORGANIZATION ( #138, #130 ) ;
#201 = EDGE_CURVE ( 'NONE', #237, #26, #204, .T. ) ;
#202 = DIRECTION ( 'NONE',  ( -0.000000000000000000, -0.000000000000000000, -1.000000000000000000 ) ) ;
#203 = VECTOR ( 'NONE', #165, 1000.000000000000000 ) ;
#204 = LINE ( 'NONE', #41, #203 ) ;
#205 = ADVANCED_FACE ( 'NONE', ( #6 ), #105, .T. ) ;
#206 = CIRCLE ( 'NONE', #222, 5.000000000000000000 ) ;
#207 = ORIENTED_EDGE ( 'NONE', *, *, #248, .F. ) ;
#208 = CARTESIAN_POINT ( 'NONE',  ( 5.000000000000000000, 6.123233995736766282E-16, 0.000000000000000000 ) ) ;
#209 = CC_DESIGN_DATE_AND_TIME_ASSIGNMENT ( #176, #164, ( #50 ) ) ;
#210 = ORIENTED_EDGE ( 'NONE', *, *, #111, .F. ) ;
#211 = ORIENTED_EDGE ( 'NONE', *, *, #71, .T. ) ;
#212 = COORDINATED_UNIVERSAL_TIME_OFFSET ( 1, 0, .AHEAD. ) ;
#213 = ADVANCED_FACE ( 'NONE', ( #29 ), #108, .T. ) ;
#214 = ORIENTED_EDGE ( 'NONE', *, *, #71, .F. ) ;
#215 = PLANE ( 'NONE',  #98 ) ;
#216 = CARTESIAN_POINT ( 'NONE',  ( 0.000000000000000000, 0.000000000000000000, 3.000000000000000000 ) ) ;
#217 = VERTEX_POINT ( 'NONE', #208 ) ;
#218 = DIRECTION ( 'NONE',  ( 1.000000000000000000, 0.000000000000000000, -0.000000000000000000 ) ) ;
#219 = EDGE_LOOP ( 'NONE', ( #94, #114, #198, #73 ) ) ;
#220 = CARTESIAN_POINT ( 'NONE',  ( 0.000000000000000000, 0.000000000000000000, 0.000000000000000000 ) ) ;
#221 = DIRECTION ( 'NONE',  ( 0.000000000000000000, 0.000000000000000000, 1.000000000000000000 ) ) ;
#222 = AXIS2_PLACEMENT_3D ( 'NONE', #220, #119, #123 ) ;
#223 = LINE ( 'NONE', #42, #183 ) ;
#224 = CARTESIAN_POINT ( 'NONE',  ( 0.000000000000000000, 0.000000000000000000, 0.000000000000000000 ) ) ;
#225 = APPROVAL ( #54, 'NEURÈENÝ' ) ;
#226 = CIRCLE ( 'NONE', #115, 5.000000000000000000 ) ;
#227 = CC_DESIGN_APPROVAL ( #182, ( #174 ) ) ;
#228 = CARTESIAN_POINT ( 'NONE',  ( 2.500000000000000000, 3.061616997868383141E-16, 160.0000000000000000 ) ) ;
#229 = CALENDAR_DATE ( 2023, 12, 2 ) ;
#230 = ADVANCED_FACE ( 'NONE', ( #110 ), #68, .T. ) ;
#231 =( LENGTH_UNIT ( ) NAMED_UNIT ( * ) SI_UNIT ( .MILLI., .METRE. ) );
#232 = CARTESIAN_POINT ( 'NONE',  ( -5.000000000000000000, 0.000000000000000000, 3.000000000000000000 ) ) ;
#233 = DIRECTION ( 'NONE',  ( -0.000000000000000000, -0.000000000000000000, -1.000000000000000000 ) ) ;
#234 = ORIENTED_EDGE ( 'NONE', *, *, #13, .T. ) ;
#235 = EDGE_LOOP ( 'NONE', ( #211, #19 ) ) ;
#236 = LOCAL_TIME ( 13, 31, 15.00000000000000000, #189 ) ;
#237 = VERTEX_POINT ( 'NONE', #228 ) ;
#238 = CARTESIAN_POINT ( 'NONE',  ( 0.000000000000000000, 0.000000000000000000, 160.0000000000000000 ) ) ;
#239 = SHAPE_DEFINITION_REPRESENTATION ( #187, #148 ) ;
#240 = CIRCLE ( 'NONE', #193, 5.000000000000000000 ) ;
#241 = ORIENTED_EDGE ( 'NONE', *, *, #158, .T. ) ;
#242 = EDGE_CURVE ( 'NONE', #26, #102, #24, .T. ) ;
#243 = DIRECTION ( 'NONE',  ( -1.000000000000000000, 0.000000000000000000, 0.000000000000000000 ) ) ;
#244 = FACE_OUTER_BOUND ( 'NONE', #81, .T. ) ;
#245 = CARTESIAN_POINT ( 'NONE',  ( 0.000000000000000000, 0.000000000000000000, 160.0000000000000000 ) ) ;
#246 = CARTESIAN_POINT ( 'NONE',  ( 0.000000000000000000, 0.000000000000000000, 0.000000000000000000 ) ) ;
#247 = AXIS2_PLACEMENT_3D ( 'NONE', #125, #51, #170 ) ;
#248 = EDGE_CURVE ( 'NONE', #178, #102, #150, .T. ) ;
#249 = ADVANCED_FACE ( 'NONE', ( #100 ), #215, .T. ) ;
#250 = PERSON_AND_ORGANIZATION_ROLE ( 'design_owner' ) ;
#251 = DIRECTION ( 'NONE',  ( -1.000000000000000000, 0.000000000000000000, 0.000000000000000000 ) ) ;
#252 = COORDINATED_UNIVERSAL_TIME_OFFSET ( 1, 0, .AHEAD. ) ;
#253 = VERTEX_POINT ( 'NONE', #93 ) ;
#254 =( NAMED_UNIT ( * ) PLANE_ANGLE_UNIT ( ) SI_UNIT ( $, .RADIAN. ) );
#255 = ORIENTED_EDGE ( 'NONE', *, *, #101, .F. ) ;
ENDSEC;
END-ISO-10303-21;
