ISO-10303-21;
HEADER;
FILE_DESCRIPTION (( 'STEP AP203' ),
    '1' );
FILE_NAME ('8819.STEP',
    '2023-02-12T10:56:32',
    ( '' ),
    ( '' ),
    'SwSTEP 2.0',
    'SolidWorks 2019',
    '' );
FILE_SCHEMA (( 'CONFIG_CONTROL_DESIGN' ));
ENDSEC;

DATA;
#1 = COORDINATED_UNIVERSAL_TIME_OFFSET ( 1, 0, .AHEAD. ) ;
#2 = ORIENTED_EDGE ( 'NONE', *, *, #42, .F. ) ;
#3 = EDGE_LOOP ( 'NONE', ( #76, #152 ) ) ;
#4 = PRODUCT_RELATED_PRODUCT_CATEGORY ( 'detail', '', ( #48 ) ) ;
#5 = VERTEX_POINT ( 'NONE', #229 ) ;
#6 = COORDINATED_UNIVERSAL_TIME_OFFSET ( 1, 0, .AHEAD. ) ;
#7 = ADVANCED_BREP_SHAPE_REPRESENTATION ( '8819', ( #28, #16 ), #30 ) ;
#8 = DIRECTION ( 'NONE',  ( 1.000000000000000000, 0.000000000000000000, 0.000000000000000000 ) ) ;
#9 = EDGE_CURVE ( 'NONE', #159, #169, #151, .T. ) ;
#10 = ORIENTED_EDGE ( 'NONE', *, *, #60, .F. ) ;
#11 = CIRCLE ( 'NONE', #160, 9.000000000000000000 ) ;
#12 = DIRECTION ( 'NONE',  ( -0.000000000000000000, -0.000000000000000000, -1.000000000000000000 ) ) ;
#13 = LOCAL_TIME ( 11, 56, 32.00000000000000000, #101 ) ;
#14 =( NAMED_UNIT ( * ) SI_UNIT ( $, .STERADIAN. ) SOLID_ANGLE_UNIT ( ) );
#15 = PERSON_AND_ORGANIZATION ( #52, #62 ) ;
#16 = AXIS2_PLACEMENT_3D ( 'NONE', #254, #194, #195 ) ;
#17 = ORIENTED_EDGE ( 'NONE', *, *, #68, .F. ) ;
#18 = ORIENTED_EDGE ( 'NONE', *, *, #153, .T. ) ;
#19 = APPROVAL_ROLE ( '' ) ;
#20 = CC_DESIGN_DATE_AND_TIME_ASSIGNMENT ( #69, #93, ( #237 ) ) ;
#21 = DIRECTION ( 'NONE',  ( 1.000000000000000000, 0.000000000000000000, -0.000000000000000000 ) ) ;
#22 = DIRECTION ( 'NONE',  ( -0.000000000000000000, -0.000000000000000000, -1.000000000000000000 ) ) ;
#23 = CC_DESIGN_DATE_AND_TIME_ASSIGNMENT ( #214, #239, ( #186 ) ) ;
#24 = EDGE_LOOP ( 'NONE', ( #124, #64, #161, #105 ) ) ;
#25 = LOCAL_TIME ( 11, 56, 32.00000000000000000, #6 ) ;
#26 = ADVANCED_FACE ( 'NONE', ( #203 ), #63, .T. ) ;
#27 = CARTESIAN_POINT ( 'NONE',  ( 0.000000000000000000, 0.000000000000000000, 7.000000000000000000 ) ) ;
#28 = MANIFOLD_SOLID_BREP ( 'Pøidat vysunutím3', #83 ) ;
#29 = DIRECTION ( 'NONE',  ( 0.000000000000000000, 0.000000000000000000, 1.000000000000000000 ) ) ;
#30 =( GEOMETRIC_REPRESENTATION_CONTEXT ( 3 ) GLOBAL_UNCERTAINTY_ASSIGNED_CONTEXT ( ( #187 ) ) GLOBAL_UNIT_ASSIGNED_CONTEXT ( ( #111, #32, #14 ) ) REPRESENTATION_CONTEXT ( 'NONE', 'WORKASPACE' ) );
#31 = APPROVAL_STATUS ( 'not_yet_approved' ) ;
#32 =( NAMED_UNIT ( * ) PLANE_ANGLE_UNIT ( ) SI_UNIT ( $, .RADIAN. ) );
#33 = PERSON_AND_ORGANIZATION ( #52, #62 ) ;
#34 = CARTESIAN_POINT ( 'NONE',  ( 6.099999999999999645, 7.470345474798854293E-16, 7.000000000000000000 ) ) ;
#35 = PERSON_AND_ORGANIZATION_ROLE ( 'design_supplier' ) ;
#36 = APPLICATION_CONTEXT ( 'configuration controlled 3d designs of mechanical parts and assemblies' ) ;
#37 = DIRECTION ( 'NONE',  ( 1.000000000000000000, 0.000000000000000000, -0.000000000000000000 ) ) ;
#38 = AXIS2_PLACEMENT_3D ( 'NONE', #211, #217, #37 ) ;
#39 = CC_DESIGN_PERSON_AND_ORGANIZATION_ASSIGNMENT ( #219, #35, ( #233 ) ) ;
#40 = PERSON_AND_ORGANIZATION ( #52, #62 ) ;
#41 = LOCAL_TIME ( 11, 56, 32.00000000000000000, #113 ) ;
#42 = EDGE_CURVE ( 'NONE', #179, #5, #84, .T. ) ;
#43 = CARTESIAN_POINT ( 'NONE',  ( 0.000000000000000000, 0.000000000000000000, 800.0000000000000000 ) ) ;
#44 = LINE ( 'NONE', #204, #96 ) ;
#45 = CIRCLE ( 'NONE', #158, 9.000000000000000000 ) ;
#46 = DIRECTION ( 'NONE',  ( 1.000000000000000000, 0.000000000000000000, 0.000000000000000000 ) ) ;
#47 = DIRECTION ( 'NONE',  ( -0.000000000000000000, -0.000000000000000000, -1.000000000000000000 ) ) ;
#48 = PRODUCT ( '8819', '8819', '', ( #178 ) ) ;
#49 = CC_DESIGN_APPROVAL ( #115, ( #186 ) ) ;
#50 = CYLINDRICAL_SURFACE ( 'NONE', #134, 9.000000000000000000 ) ;
#51 = PLANE ( 'NONE',  #38 ) ;
#52 = PERSON ( 'NEURÈENÝ', 'NEURÈENÝ', 'NEURÈENÝ', ('NEURÈENÝ'), ('NEURÈENÝ'), ('NEURÈENÝ') ) ;
#53 = FACE_BOUND ( 'NONE', #145, .T. ) ;
#54 = APPROVAL ( #31, 'NEURÈENÝ' ) ;
#55 = CALENDAR_DATE ( 2023, 12, 2 ) ;
#56 = PRODUCT_DEFINITION_SHAPE ( 'NONE', 'NONE',  #186 ) ;
#57 = AXIS2_PLACEMENT_3D ( 'NONE', #59, #22, #103 ) ;
#58 = ADVANCED_FACE ( 'NONE', ( #146 ), #88, .F. ) ;
#59 = CARTESIAN_POINT ( 'NONE',  ( 0.000000000000000000, 0.000000000000000000, 7.000000000000000000 ) ) ;
#60 = EDGE_CURVE ( 'NONE', #177, #175, #119, .T. ) ;
#61 = APPLICATION_PROTOCOL_DEFINITION ( 'international standard', 'config_control_design', 1994, #94 ) ;
#62 = ORGANIZATION ( 'NEURÈENÝ', 'NEURÈENÝ', '' ) ;
#63 = PLANE ( 'NONE',  #197 ) ;
#64 = ORIENTED_EDGE ( 'NONE', *, *, #68, .T. ) ;
#65 = CALENDAR_DATE ( 2023, 12, 2 ) ;
#66 = ORIENTED_EDGE ( 'NONE', *, *, #232, .T. ) ;
#67 = DIRECTION ( 'NONE',  ( 0.000000000000000000, 0.000000000000000000, 1.000000000000000000 ) ) ;
#68 = EDGE_CURVE ( 'NONE', #175, #179, #81, .T. ) ;
#69 = DATE_AND_TIME ( #241, #41 ) ;
#70 = LINE ( 'NONE', #137, #114 ) ;
#71 = CARTESIAN_POINT ( 'NONE',  ( -6.099999999999999645, 0.000000000000000000, 800.0000000000000000 ) ) ;
#72 = APPROVAL_DATE_TIME ( #117, #115 ) ;
#73 = ORIENTED_EDGE ( 'NONE', *, *, #60, .T. ) ;
#74 = APPROVAL_ROLE ( '' ) ;
#75 = EDGE_CURVE ( 'NONE', #177, #5, #44, .T. ) ;
#76 = ORIENTED_EDGE ( 'NONE', *, *, #139, .F. ) ;
#77 = CIRCLE ( 'NONE', #91, 9.000000000000000000 ) ;
#78 = EDGE_LOOP ( 'NONE', ( #122, #87, #99, #121 ) ) ;
#79 = PERSON_AND_ORGANIZATION_ROLE ( 'design_owner' ) ;
#80 = FACE_OUTER_BOUND ( 'NONE', #78, .T. ) ;
#81 = LINE ( 'NONE', #248, #170 ) ;
#82 = VERTEX_POINT ( 'NONE', #147 ) ;
#83 = CLOSED_SHELL ( 'NONE', ( #97, #106, #223, #168, #58, #242, #26 ) ) ;
#84 = CIRCLE ( 'NONE', #236, 6.099999999999999645 ) ;
#85 = LOCAL_TIME ( 11, 56, 32.00000000000000000, #190 ) ;
#86 = DIRECTION ( 'NONE',  ( -0.000000000000000000, -0.000000000000000000, -1.000000000000000000 ) ) ;
#87 = ORIENTED_EDGE ( 'NONE', *, *, #202, .T. ) ;
#88 = PLANE ( 'NONE',  #227 ) ;
#89 = CC_DESIGN_PERSON_AND_ORGANIZATION_ASSIGNMENT ( #15, #253, ( #233 ) ) ;
#90 = DIRECTION ( 'NONE',  ( 0.000000000000000000, 0.000000000000000000, 1.000000000000000000 ) ) ;
#91 = AXIS2_PLACEMENT_3D ( 'NONE', #171, #29, #234 ) ;
#92 = DIRECTION ( 'NONE',  ( 0.000000000000000000, 0.000000000000000000, 1.000000000000000000 ) ) ;
#93 = DATE_TIME_ROLE ( 'classification_date' ) ;
#94 = APPLICATION_CONTEXT ( 'configuration controlled 3d designs of mechanical parts and assemblies' ) ;
#95 = DIRECTION ( 'NONE',  ( 1.000000000000000000, 0.000000000000000000, 0.000000000000000000 ) ) ;
#96 = VECTOR ( 'NONE', #86, 1000.000000000000000 ) ;
#97 = ADVANCED_FACE ( 'NONE', ( #107 ), #127, .T. ) ;
#98 = DATE_AND_TIME ( #143, #13 ) ;
#99 = ORIENTED_EDGE ( 'NONE', *, *, #191, .T. ) ;
#100 = ORIENTED_EDGE ( 'NONE', *, *, #75, .T. ) ;
#101 = COORDINATED_UNIVERSAL_TIME_OFFSET ( 1, 0, .AHEAD. ) ;
#102 = CARTESIAN_POINT ( 'NONE',  ( 0.000000000000000000, 0.000000000000000000, 0.000000000000000000 ) ) ;
#103 = DIRECTION ( 'NONE',  ( -1.000000000000000000, 0.000000000000000000, 0.000000000000000000 ) ) ;
#104 = DIRECTION ( 'NONE',  ( 0.000000000000000000, 0.000000000000000000, 1.000000000000000000 ) ) ;
#105 = ORIENTED_EDGE ( 'NONE', *, *, #75, .F. ) ;
#106 = ADVANCED_FACE ( 'NONE', ( #80 ), #185, .T. ) ;
#107 = FACE_OUTER_BOUND ( 'NONE', #24, .T. ) ;
#108 = CIRCLE ( 'NONE', #192, 6.099999999999999645 ) ;
#109 = CYLINDRICAL_SURFACE ( 'NONE', #184, 6.099999999999999645 ) ;
#110 = EDGE_CURVE ( 'NONE', #205, #159, #11, .T. ) ;
#111 =( LENGTH_UNIT ( ) NAMED_UNIT ( * ) SI_UNIT ( .MILLI., .METRE. ) );
#112 = CARTESIAN_POINT ( 'NONE',  ( 0.000000000000000000, 0.000000000000000000, 7.000000000000000000 ) ) ;
#113 = COORDINATED_UNIVERSAL_TIME_OFFSET ( 1, 0, .AHEAD. ) ;
#114 = VECTOR ( 'NONE', #215, 1000.000000000000000 ) ;
#115 = APPROVAL ( #200, 'NEURÈENÝ' ) ;
#116 = CARTESIAN_POINT ( 'NONE',  ( 0.000000000000000000, 0.000000000000000000, 0.000000000000000000 ) ) ;
#117 = DATE_AND_TIME ( #65, #25 ) ;
#118 = SECURITY_CLASSIFICATION_LEVEL ( 'unclassified' ) ;
#119 = CIRCLE ( 'NONE', #142, 6.099999999999999645 ) ;
#120 = CC_DESIGN_SECURITY_CLASSIFICATION ( #237, ( #233 ) ) ;
#121 = ORIENTED_EDGE ( 'NONE', *, *, #9, .F. ) ;
#122 = ORIENTED_EDGE ( 'NONE', *, *, #110, .F. ) ;
#123 = APPROVAL_PERSON_ORGANIZATION ( #33, #54, #138 ) ;
#124 = ORIENTED_EDGE ( 'NONE', *, *, #153, .F. ) ;
#125 = DIRECTION ( 'NONE',  ( -1.000000000000000000, 0.000000000000000000, 0.000000000000000000 ) ) ;
#126 = ORIENTED_EDGE ( 'NONE', *, *, #9, .T. ) ;
#127 = CYLINDRICAL_SURFACE ( 'NONE', #128, 6.099999999999999645 ) ;
#128 = AXIS2_PLACEMENT_3D ( 'NONE', #43, #206, #125 ) ;
#129 = CARTESIAN_POINT ( 'NONE',  ( 0.000000000000000000, 0.000000000000000000, 800.0000000000000000 ) ) ;
#130 = DESIGN_CONTEXT ( 'detailed design', #94, 'design' ) ;
#131 = CARTESIAN_POINT ( 'NONE',  ( -9.000000000000000000, 0.000000000000000000, 7.000000000000000000 ) ) ;
#132 = FACE_OUTER_BOUND ( 'NONE', #230, .T. ) ;
#133 = CARTESIAN_POINT ( 'NONE',  ( -9.000000000000000000, 0.000000000000000000, 7.000000000000000000 ) ) ;
#134 = AXIS2_PLACEMENT_3D ( 'NONE', #112, #12, #193 ) ;
#135 = CARTESIAN_POINT ( 'NONE',  ( 0.000000000000000000, 0.000000000000000000, 800.0000000000000000 ) ) ;
#136 = PERSON_AND_ORGANIZATION_ROLE ( 'creator' ) ;
#137 = CARTESIAN_POINT ( 'NONE',  ( 9.000000000000000000, 1.102182119232617714E-15, 7.000000000000000000 ) ) ;
#138 = APPROVAL_ROLE ( '' ) ;
#139 = EDGE_CURVE ( 'NONE', #169, #82, #45, .T. ) ;
#140 = FACE_OUTER_BOUND ( 'NONE', #250, .T. ) ;
#141 = CALENDAR_DATE ( 2023, 12, 2 ) ;
#142 = AXIS2_PLACEMENT_3D ( 'NONE', #149, #228, #207 ) ;
#143 = CALENDAR_DATE ( 2023, 12, 2 ) ;
#144 = ORIENTED_EDGE ( 'NONE', *, *, #163, .F. ) ;
#145 = EDGE_LOOP ( 'NONE', ( #220, #2 ) ) ;
#146 = FACE_OUTER_BOUND ( 'NONE', #3, .T. ) ;
#147 = CARTESIAN_POINT ( 'NONE',  ( 9.000000000000000000, 1.102182119232617714E-15, 0.000000000000000000 ) ) ;
#148 = ORIENTED_EDGE ( 'NONE', *, *, #202, .F. ) ;
#149 = CARTESIAN_POINT ( 'NONE',  ( 0.000000000000000000, 0.000000000000000000, 800.0000000000000000 ) ) ;
#150 = DIRECTION ( 'NONE',  ( -0.000000000000000000, -0.000000000000000000, -1.000000000000000000 ) ) ;
#151 = LINE ( 'NONE', #131, #245 ) ;
#152 = ORIENTED_EDGE ( 'NONE', *, *, #191, .F. ) ;
#153 = EDGE_CURVE ( 'NONE', #175, #177, #108, .T. ) ;
#154 = FACE_OUTER_BOUND ( 'NONE', #199, .T. ) ;
#155 = CARTESIAN_POINT ( 'NONE',  ( 9.000000000000000000, 1.102182119232617714E-15, 7.000000000000000000 ) ) ;
#156 = DIRECTION ( 'NONE',  ( 0.000000000000000000, 0.000000000000000000, 1.000000000000000000 ) ) ;
#157 = PERSON_AND_ORGANIZATION ( #52, #62 ) ;
#158 = AXIS2_PLACEMENT_3D ( 'NONE', #167, #67, #231 ) ;
#159 = VERTEX_POINT ( 'NONE', #133 ) ;
#160 = AXIS2_PLACEMENT_3D ( 'NONE', #183, #165, #46 ) ;
#161 = ORIENTED_EDGE ( 'NONE', *, *, #42, .T. ) ;
#162 = DIRECTION ( 'NONE',  ( -0.000000000000000000, -0.000000000000000000, -1.000000000000000000 ) ) ;
#163 = EDGE_CURVE ( 'NONE', #159, #205, #77, .T. ) ;
#164 = CIRCLE ( 'NONE', #210, 6.099999999999999645 ) ;
#165 = DIRECTION ( 'NONE',  ( 0.000000000000000000, 0.000000000000000000, 1.000000000000000000 ) ) ;
#166 = ORIENTED_EDGE ( 'NONE', *, *, #163, .T. ) ;
#167 = CARTESIAN_POINT ( 'NONE',  ( 0.000000000000000000, 0.000000000000000000, 0.000000000000000000 ) ) ;
#168 = ADVANCED_FACE ( 'NONE', ( #53, #140 ), #51, .T. ) ;
#169 = VERTEX_POINT ( 'NONE', #238 ) ;
#170 = VECTOR ( 'NONE', #162, 1000.000000000000000 ) ;
#171 = CARTESIAN_POINT ( 'NONE',  ( 0.000000000000000000, 0.000000000000000000, 7.000000000000000000 ) ) ;
#172 = CARTESIAN_POINT ( 'NONE',  ( 0.000000000000000000, 0.000000000000000000, 7.000000000000000000 ) ) ;
#173 = DATE_AND_TIME ( #141, #85 ) ;
#174 = APPLICATION_PROTOCOL_DEFINITION ( 'international standard', 'config_control_design', 1994, #36 ) ;
#175 = VERTEX_POINT ( 'NONE', #235 ) ;
#176 = AXIS2_PLACEMENT_3D ( 'NONE', #116, #156, #189 ) ;
#177 = VERTEX_POINT ( 'NONE', #71 ) ;
#178 = MECHANICAL_CONTEXT ( 'NONE', #36, 'mechanical' ) ;
#179 = VERTEX_POINT ( 'NONE', #34 ) ;
#180 = ORIENTED_EDGE ( 'NONE', *, *, #110, .T. ) ;
#181 = CC_DESIGN_APPROVAL ( #54, ( #233 ) ) ;
#182 = APPROVAL_DATE_TIME ( #98, #208 ) ;
#183 = CARTESIAN_POINT ( 'NONE',  ( 0.000000000000000000, 0.000000000000000000, 7.000000000000000000 ) ) ;
#184 = AXIS2_PLACEMENT_3D ( 'NONE', #135, #47, #213 ) ;
#185 = CYLINDRICAL_SURFACE ( 'NONE', #57, 9.000000000000000000 ) ;
#186 = PRODUCT_DEFINITION ( 'NEZNÁMÝ', '', #233, #130 ) ;
#187 = UNCERTAINTY_MEASURE_WITH_UNIT (LENGTH_MEASURE( 1.000000000000000082E-05 ), #111, 'distance_accuracy_value', 'NONE');
#188 = DIRECTION ( 'NONE',  ( 0.000000000000000000, 0.000000000000000000, 1.000000000000000000 ) ) ;
#189 = DIRECTION ( 'NONE',  ( 1.000000000000000000, 0.000000000000000000, 0.000000000000000000 ) ) ;
#190 = COORDINATED_UNIVERSAL_TIME_OFFSET ( 1, 0, .AHEAD. ) ;
#191 = EDGE_CURVE ( 'NONE', #82, #169, #218, .T. ) ;
#192 = AXIS2_PLACEMENT_3D ( 'NONE', #129, #92, #240 ) ;
#193 = DIRECTION ( 'NONE',  ( -1.000000000000000000, 0.000000000000000000, 0.000000000000000000 ) ) ;
#194 = DIRECTION ( 'NONE',  ( 0.000000000000000000, 0.000000000000000000, 1.000000000000000000 ) ) ;
#195 = DIRECTION ( 'NONE',  ( 1.000000000000000000, 0.000000000000000000, 0.000000000000000000 ) ) ;
#196 = PERSON_AND_ORGANIZATION ( #52, #62 ) ;
#197 = AXIS2_PLACEMENT_3D ( 'NONE', #209, #247, #21 ) ;
#198 = LOCAL_TIME ( 11, 56, 32.00000000000000000, #1 ) ;
#199 = EDGE_LOOP ( 'NONE', ( #148, #144, #126, #243 ) ) ;
#200 = APPROVAL_STATUS ( 'not_yet_approved' ) ;
#201 = APPROVAL_PERSON_ORGANIZATION ( #40, #115, #19 ) ;
#202 = EDGE_CURVE ( 'NONE', #205, #82, #70, .T. ) ;
#203 = FACE_OUTER_BOUND ( 'NONE', #224, .T. ) ;
#204 = CARTESIAN_POINT ( 'NONE',  ( -6.099999999999999645, 0.000000000000000000, 800.0000000000000000 ) ) ;
#205 = VERTEX_POINT ( 'NONE', #155 ) ;
#206 = DIRECTION ( 'NONE',  ( -0.000000000000000000, -0.000000000000000000, -1.000000000000000000 ) ) ;
#207 = DIRECTION ( 'NONE',  ( 1.000000000000000000, 0.000000000000000000, 0.000000000000000000 ) ) ;
#208 = APPROVAL ( #221, 'NEURÈENÝ' ) ;
#209 = CARTESIAN_POINT ( 'NONE',  ( 0.000000000000000000, 0.000000000000000000, 800.0000000000000000 ) ) ;
#210 = AXIS2_PLACEMENT_3D ( 'NONE', #172, #90, #95 ) ;
#211 = CARTESIAN_POINT ( 'NONE',  ( 0.000000000000000000, 0.000000000000000000, 7.000000000000000000 ) ) ;
#212 = CC_DESIGN_PERSON_AND_ORGANIZATION_ASSIGNMENT ( #157, #136, ( #186 ) ) ;
#213 = DIRECTION ( 'NONE',  ( -1.000000000000000000, 0.000000000000000000, 0.000000000000000000 ) ) ;
#214 = DATE_AND_TIME ( #55, #198 ) ;
#215 = DIRECTION ( 'NONE',  ( -0.000000000000000000, -0.000000000000000000, -1.000000000000000000 ) ) ;
#216 = APPROVAL_DATE_TIME ( #173, #54 ) ;
#217 = DIRECTION ( 'NONE',  ( 0.000000000000000000, 0.000000000000000000, 1.000000000000000000 ) ) ;
#218 = CIRCLE ( 'NONE', #176, 9.000000000000000000 ) ;
#219 = PERSON_AND_ORGANIZATION ( #52, #62 ) ;
#220 = ORIENTED_EDGE ( 'NONE', *, *, #232, .F. ) ;
#221 = APPROVAL_STATUS ( 'not_yet_approved' ) ;
#222 = APPROVAL_PERSON_ORGANIZATION ( #246, #208, #74 ) ;
#223 = ADVANCED_FACE ( 'NONE', ( #154 ), #50, .T. ) ;
#224 = EDGE_LOOP ( 'NONE', ( #73, #18 ) ) ;
#225 = PERSON_AND_ORGANIZATION ( #52, #62 ) ;
#226 = CC_DESIGN_PERSON_AND_ORGANIZATION_ASSIGNMENT ( #225, #79, ( #48 ) ) ;
#227 = AXIS2_PLACEMENT_3D ( 'NONE', #102, #104, #249 ) ;
#228 = DIRECTION ( 'NONE',  ( 0.000000000000000000, 0.000000000000000000, 1.000000000000000000 ) ) ;
#229 = CARTESIAN_POINT ( 'NONE',  ( -6.099999999999999645, 0.000000000000000000, 7.000000000000000000 ) ) ;
#230 = EDGE_LOOP ( 'NONE', ( #17, #10, #100, #66 ) ) ;
#231 = DIRECTION ( 'NONE',  ( 1.000000000000000000, 0.000000000000000000, 0.000000000000000000 ) ) ;
#232 = EDGE_CURVE ( 'NONE', #5, #179, #164, .T. ) ;
#233 = PRODUCT_DEFINITION_FORMATION_WITH_SPECIFIED_SOURCE ( 'LIBOVOLNÝ', '', #48, .NOT_KNOWN. ) ;
#234 = DIRECTION ( 'NONE',  ( 1.000000000000000000, 0.000000000000000000, 0.000000000000000000 ) ) ;
#235 = CARTESIAN_POINT ( 'NONE',  ( 6.099999999999999645, 7.470345474798854293E-16, 800.0000000000000000 ) ) ;
#236 = AXIS2_PLACEMENT_3D ( 'NONE', #27, #188, #8 ) ;
#237 = SECURITY_CLASSIFICATION ( '', '', #118 ) ;
#238 = CARTESIAN_POINT ( 'NONE',  ( -9.000000000000000000, 0.000000000000000000, 0.000000000000000000 ) ) ;
#239 = DATE_TIME_ROLE ( 'creation_date' ) ;
#240 = DIRECTION ( 'NONE',  ( 1.000000000000000000, 0.000000000000000000, 0.000000000000000000 ) ) ;
#241 = CALENDAR_DATE ( 2023, 12, 2 ) ;
#242 = ADVANCED_FACE ( 'NONE', ( #132 ), #109, .T. ) ;
#243 = ORIENTED_EDGE ( 'NONE', *, *, #139, .T. ) ;
#244 = SHAPE_DEFINITION_REPRESENTATION ( #56, #7 ) ;
#245 = VECTOR ( 'NONE', #150, 1000.000000000000000 ) ;
#246 = PERSON_AND_ORGANIZATION ( #52, #62 ) ;
#247 = DIRECTION ( 'NONE',  ( 0.000000000000000000, 0.000000000000000000, 1.000000000000000000 ) ) ;
#248 = CARTESIAN_POINT ( 'NONE',  ( 6.099999999999999645, 7.470345474798854293E-16, 800.0000000000000000 ) ) ;
#249 = DIRECTION ( 'NONE',  ( 1.000000000000000000, 0.000000000000000000, -0.000000000000000000 ) ) ;
#250 = EDGE_LOOP ( 'NONE', ( #166, #180 ) ) ;
#251 = CC_DESIGN_APPROVAL ( #208, ( #237 ) ) ;
#252 = PERSON_AND_ORGANIZATION_ROLE ( 'classification_officer' ) ;
#253 = PERSON_AND_ORGANIZATION_ROLE ( 'creator' ) ;
#254 = CARTESIAN_POINT ( 'NONE',  ( 0.000000000000000000, 0.000000000000000000, 0.000000000000000000 ) ) ;
#255 = CC_DESIGN_PERSON_AND_ORGANIZATION_ASSIGNMENT ( #196, #252, ( #237 ) ) ;
ENDSEC;
END-ISO-10303-21;
