ISO-10303-21;
HEADER;
FILE_DESCRIPTION (( 'STEP AP203' ),
    '1' );
FILE_NAME ('1c34.STEP',
    '2023-02-12T11:15:37',
    ( '' ),
    ( '' ),
    'SwSTEP 2.0',
    'SolidWorks 2019',
    '' );
FILE_SCHEMA (( 'CONFIG_CONTROL_DESIGN' ));
ENDSEC;

DATA;
#1 = CARTESIAN_POINT ( 'NONE',  ( 0.000000000000000000, 0.000000000000000000, 5.000000000000000000 ) ) ;
#2 = PRODUCT_RELATED_PRODUCT_CATEGORY ( 'detail', '', ( #140 ) ) ;
#3 = CARTESIAN_POINT ( 'NONE',  ( -5.250000000000000888, 0.000000000000000000, 5.000000000000000000 ) ) ;
#4 = DIRECTION ( 'NONE',  ( 0.000000000000000000, 0.000000000000000000, 1.000000000000000000 ) ) ;
#5 = PRODUCT_DEFINITION_FORMATION_WITH_SPECIFIED_SOURCE ( 'LIBOVOLNÝ', '', #140, .NOT_KNOWN. ) ;
#6 = CARTESIAN_POINT ( 'NONE',  ( 0.000000000000000000, 0.000000000000000000, 5.000000000000000000 ) ) ;
#7 = MECHANICAL_CONTEXT ( 'NONE', #205, 'mechanical' ) ;
#8 = VERTEX_POINT ( 'NONE', #178 ) ;
#9 = ORIENTED_EDGE ( 'NONE', *, *, #86, .T. ) ;
#10 = CC_DESIGN_PERSON_AND_ORGANIZATION_ASSIGNMENT ( #234, #122, ( #20 ) ) ;
#11 = CARTESIAN_POINT ( 'NONE',  ( 5.250000000000000888, 6.429395695523605139E-16, 630.0000000000000000 ) ) ;
#12 = PERSON_AND_ORGANIZATION ( #95, #149 ) ;
#13 = AXIS2_PLACEMENT_3D ( 'NONE', #6, #68, #135 ) ;
#14 = DATE_TIME_ROLE ( 'classification_date' ) ;
#15 = EDGE_CURVE ( 'NONE', #8, #39, #41, .T. ) ;
#16 = DATE_TIME_ROLE ( 'creation_date' ) ;
#17 = DIRECTION ( 'NONE',  ( -0.000000000000000000, -0.000000000000000000, -1.000000000000000000 ) ) ;
#18 = ORIENTED_EDGE ( 'NONE', *, *, #216, .F. ) ;
#19 = APPROVAL_PERSON_ORGANIZATION ( #12, #78, #190 ) ;
#20 = PRODUCT_DEFINITION ( 'NEZNÁMÝ', '', #5, #62 ) ;
#21 = CYLINDRICAL_SURFACE ( 'NONE', #187, 8.000000000000000000 ) ;
#22 = VECTOR ( 'NONE', #146, 1000.000000000000000 ) ;
#23 = CIRCLE ( 'NONE', #13, 5.250000000000000888 ) ;
#24 = CARTESIAN_POINT ( 'NONE',  ( 5.250000000000000888, 6.429395695523605139E-16, 5.000000000000000000 ) ) ;
#25 = APPROVAL_ROLE ( '' ) ;
#26 = ADVANCED_BREP_SHAPE_REPRESENTATION ( '1c34', ( #218, #166 ), #254 ) ;
#27 = CIRCLE ( 'NONE', #55, 5.250000000000000888 ) ;
#28 = FACE_OUTER_BOUND ( 'NONE', #116, .T. ) ;
#29 =( NAMED_UNIT ( * ) SI_UNIT ( $, .STERADIAN. ) SOLID_ANGLE_UNIT ( ) );
#30 = VERTEX_POINT ( 'NONE', #211 ) ;
#31 = CC_DESIGN_DATE_AND_TIME_ASSIGNMENT ( #233, #14, ( #94 ) ) ;
#32 = CARTESIAN_POINT ( 'NONE',  ( 0.000000000000000000, 0.000000000000000000, 630.0000000000000000 ) ) ;
#33 = APPROVAL_STATUS ( 'not_yet_approved' ) ;
#34 = DIRECTION ( 'NONE',  ( 1.000000000000000000, 0.000000000000000000, 0.000000000000000000 ) ) ;
#35 = AXIS2_PLACEMENT_3D ( 'NONE', #123, #209, #53 ) ;
#36 = FACE_OUTER_BOUND ( 'NONE', #214, .T. ) ;
#37 = VERTEX_POINT ( 'NONE', #225 ) ;
#38 = CARTESIAN_POINT ( 'NONE',  ( 8.000000000000000000, 9.797174393178825657E-16, 0.000000000000000000 ) ) ;
#39 = VERTEX_POINT ( 'NONE', #38 ) ;
#40 = ADVANCED_FACE ( 'NONE', ( #168 ), #170, .T. ) ;
#41 = LINE ( 'NONE', #186, #156 ) ;
#42 = CLOSED_SHELL ( 'NONE', ( #237, #67, #245, #185, #57, #93, #40 ) ) ;
#43 = FACE_BOUND ( 'NONE', #77, .T. ) ;
#44 = FACE_OUTER_BOUND ( 'NONE', #100, .T. ) ;
#45 = ORIENTED_EDGE ( 'NONE', *, *, #152, .T. ) ;
#46 = DIRECTION ( 'NONE',  ( -0.000000000000000000, -0.000000000000000000, -1.000000000000000000 ) ) ;
#47 = PERSON_AND_ORGANIZATION ( #95, #149 ) ;
#48 = EDGE_CURVE ( 'NONE', #39, #30, #84, .T. ) ;
#49 = ORIENTED_EDGE ( 'NONE', *, *, #251, .F. ) ;
#50 = LOCAL_TIME ( 12, 15, 37.00000000000000000, #76 ) ;
#51 = CIRCLE ( 'NONE', #248, 5.250000000000000888 ) ;
#52 = PERSON_AND_ORGANIZATION ( #95, #149 ) ;
#53 = DIRECTION ( 'NONE',  ( 1.000000000000000000, 0.000000000000000000, -0.000000000000000000 ) ) ;
#54 = APPROVAL_DATE_TIME ( #236, #78 ) ;
#55 = AXIS2_PLACEMENT_3D ( 'NONE', #88, #196, #128 ) ;
#56 = APPLICATION_CONTEXT ( 'configuration controlled 3d designs of mechanical parts and assemblies' ) ;
#57 = ADVANCED_FACE ( 'NONE', ( #79 ), #141, .F. ) ;
#58 = PERSON_AND_ORGANIZATION_ROLE ( 'creator' ) ;
#59 = DIRECTION ( 'NONE',  ( 1.000000000000000000, 0.000000000000000000, -0.000000000000000000 ) ) ;
#60 = ORIENTED_EDGE ( 'NONE', *, *, #86, .F. ) ;
#61 = DIRECTION ( 'NONE',  ( -0.000000000000000000, -0.000000000000000000, -1.000000000000000000 ) ) ;
#62 = DESIGN_CONTEXT ( 'detailed design', #56, 'design' ) ;
#63 = AXIS2_PLACEMENT_3D ( 'NONE', #32, #17, #105 ) ;
#64 = ORIENTED_EDGE ( 'NONE', *, *, #240, .F. ) ;
#65 = PLANE ( 'NONE',  #189 ) ;
#66 = AXIS2_PLACEMENT_3D ( 'NONE', #164, #119, #59 ) ;
#67 = ADVANCED_FACE ( 'NONE', ( #139 ), #21, .T. ) ;
#68 = DIRECTION ( 'NONE',  ( 0.000000000000000000, 0.000000000000000000, 1.000000000000000000 ) ) ;
#69 = PERSON_AND_ORGANIZATION_ROLE ( 'design_owner' ) ;
#70 = APPROVAL_PERSON_ORGANIZATION ( #52, #180, #25 ) ;
#71 = ORIENTED_EDGE ( 'NONE', *, *, #152, .F. ) ;
#72 = ORIENTED_EDGE ( 'NONE', *, *, #48, .T. ) ;
#73 = CARTESIAN_POINT ( 'NONE',  ( 0.000000000000000000, 0.000000000000000000, 0.000000000000000000 ) ) ;
#74 = EDGE_LOOP ( 'NONE', ( #115, #229 ) ) ;
#75 = DIRECTION ( 'NONE',  ( 1.000000000000000000, 0.000000000000000000, 0.000000000000000000 ) ) ;
#76 = COORDINATED_UNIVERSAL_TIME_OFFSET ( 1, 0, .AHEAD. ) ;
#77 = EDGE_LOOP ( 'NONE', ( #60, #49 ) ) ;
#78 = APPROVAL ( #33, 'NEURÈENÝ' ) ;
#79 = FACE_OUTER_BOUND ( 'NONE', #74, .T. ) ;
#80 = PRODUCT_DEFINITION_SHAPE ( 'NONE', 'NONE',  #20 ) ;
#81 = DIRECTION ( 'NONE',  ( 1.000000000000000000, 0.000000000000000000, 0.000000000000000000 ) ) ;
#82 = CIRCLE ( 'NONE', #153, 8.000000000000000000 ) ;
#83 = COORDINATED_UNIVERSAL_TIME_OFFSET ( 1, 0, .AHEAD. ) ;
#84 = CIRCLE ( 'NONE', #195, 8.000000000000000000 ) ;
#85 = CARTESIAN_POINT ( 'NONE',  ( -8.000000000000000000, 0.000000000000000000, 5.000000000000000000 ) ) ;
#86 = EDGE_CURVE ( 'NONE', #232, #199, #51, .T. ) ;
#87 = APPROVAL_DATE_TIME ( #174, #180 ) ;
#88 = CARTESIAN_POINT ( 'NONE',  ( 0.000000000000000000, 0.000000000000000000, 630.0000000000000000 ) ) ;
#89 = DIRECTION ( 'NONE',  ( 1.000000000000000000, 0.000000000000000000, 0.000000000000000000 ) ) ;
#90 = CARTESIAN_POINT ( 'NONE',  ( 0.000000000000000000, 0.000000000000000000, 630.0000000000000000 ) ) ;
#91 = VECTOR ( 'NONE', #46, 1000.000000000000000 ) ;
#92 = ORIENTED_EDGE ( 'NONE', *, *, #15, .T. ) ;
#93 = ADVANCED_FACE ( 'NONE', ( #36 ), #223, .T. ) ;
#94 = SECURITY_CLASSIFICATION ( '', '', #144 ) ;
#95 = PERSON ( 'NEURÈENÝ', 'NEURÈENÝ', 'NEURÈENÝ', ('NEURÈENÝ'), ('NEURÈENÝ'), ('NEURÈENÝ') ) ;
#96 = ORIENTED_EDGE ( 'NONE', *, *, #15, .F. ) ;
#97 = ORIENTED_EDGE ( 'NONE', *, *, #117, .F. ) ;
#98 = ORIENTED_EDGE ( 'NONE', *, *, #159, .F. ) ;
#99 = PERSON_AND_ORGANIZATION ( #95, #149 ) ;
#100 = EDGE_LOOP ( 'NONE', ( #157, #131 ) ) ;
#101 = CC_DESIGN_DATE_AND_TIME_ASSIGNMENT ( #188, #16, ( #20 ) ) ;
#102 = AXIS2_PLACEMENT_3D ( 'NONE', #160, #181, #219 ) ;
#103 = AXIS2_PLACEMENT_3D ( 'NONE', #1, #148, #89 ) ;
#104 = DIRECTION ( 'NONE',  ( -1.000000000000000000, 0.000000000000000000, 0.000000000000000000 ) ) ;
#105 = DIRECTION ( 'NONE',  ( -1.000000000000000000, 0.000000000000000000, 0.000000000000000000 ) ) ;
#106 = COORDINATED_UNIVERSAL_TIME_OFFSET ( 1, 0, .AHEAD. ) ;
#107 = CARTESIAN_POINT ( 'NONE',  ( 0.000000000000000000, 0.000000000000000000, 5.000000000000000000 ) ) ;
#108 = CARTESIAN_POINT ( 'NONE',  ( 0.000000000000000000, 0.000000000000000000, 5.000000000000000000 ) ) ;
#109 = EDGE_CURVE ( 'NONE', #253, #37, #163, .T. ) ;
#110 = LINE ( 'NONE', #215, #142 ) ;
#111 = LINE ( 'NONE', #227, #22 ) ;
#112 = APPLICATION_PROTOCOL_DEFINITION ( 'international standard', 'config_control_design', 1994, #205 ) ;
#113 = EDGE_CURVE ( 'NONE', #30, #39, #198, .T. ) ;
#114 =( NAMED_UNIT ( * ) PLANE_ANGLE_UNIT ( ) SI_UNIT ( $, .RADIAN. ) );
#115 = ORIENTED_EDGE ( 'NONE', *, *, #113, .F. ) ;
#116 = EDGE_LOOP ( 'NONE', ( #250, #222, #133, #97 ) ) ;
#117 = EDGE_CURVE ( 'NONE', #37, #232, #110, .T. ) ;
#118 = DATE_AND_TIME ( #120, #224 ) ;
#119 = DIRECTION ( 'NONE',  ( 0.000000000000000000, 0.000000000000000000, 1.000000000000000000 ) ) ;
#120 = CALENDAR_DATE ( 2023, 12, 2 ) ;
#121 = EDGE_LOOP ( 'NONE', ( #96, #18, #184, #249 ) ) ;
#122 = PERSON_AND_ORGANIZATION_ROLE ( 'creator' ) ;
#123 = CARTESIAN_POINT ( 'NONE',  ( 0.000000000000000000, 0.000000000000000000, 630.0000000000000000 ) ) ;
#124 = EDGE_LOOP ( 'NONE', ( #45, #200 ) ) ;
#125 = CARTESIAN_POINT ( 'NONE',  ( 0.000000000000000000, 0.000000000000000000, 630.0000000000000000 ) ) ;
#126 = DIRECTION ( 'NONE',  ( 1.000000000000000000, 0.000000000000000000, -0.000000000000000000 ) ) ;
#127 = FACE_OUTER_BOUND ( 'NONE', #121, .T. ) ;
#128 = DIRECTION ( 'NONE',  ( 1.000000000000000000, 0.000000000000000000, 0.000000000000000000 ) ) ;
#129 = CC_DESIGN_APPROVAL ( #78, ( #5 ) ) ;
#130 =( LENGTH_UNIT ( ) NAMED_UNIT ( * ) SI_UNIT ( .MILLI., .METRE. ) );
#131 = ORIENTED_EDGE ( 'NONE', *, *, #208, .T. ) ;
#132 = CC_DESIGN_APPROVAL ( #134, ( #20 ) ) ;
#133 = ORIENTED_EDGE ( 'NONE', *, *, #251, .T. ) ;
#134 = APPROVAL ( #179, 'NEURÈENÝ' ) ;
#135 = DIRECTION ( 'NONE',  ( 1.000000000000000000, 0.000000000000000000, 0.000000000000000000 ) ) ;
#136 = EDGE_LOOP ( 'NONE', ( #158, #92, #72, #64 ) ) ;
#137 = AXIS2_PLACEMENT_3D ( 'NONE', #217, #241, #243 ) ;
#138 = APPROVAL_STATUS ( 'not_yet_approved' ) ;
#139 = FACE_OUTER_BOUND ( 'NONE', #136, .T. ) ;
#140 = PRODUCT ( '1c34', '1c34', '', ( #7 ) ) ;
#141 = PLANE ( 'NONE',  #66 ) ;
#142 = VECTOR ( 'NONE', #61, 1000.000000000000000 ) ;
#143 = CALENDAR_DATE ( 2023, 12, 2 ) ;
#144 = SECURITY_CLASSIFICATION_LEVEL ( 'unclassified' ) ;
#145 = CIRCLE ( 'NONE', #103, 8.000000000000000000 ) ;
#146 = DIRECTION ( 'NONE',  ( -0.000000000000000000, -0.000000000000000000, -1.000000000000000000 ) ) ;
#147 = COORDINATED_UNIVERSAL_TIME_OFFSET ( 1, 0, .AHEAD. ) ;
#148 = DIRECTION ( 'NONE',  ( 0.000000000000000000, 0.000000000000000000, 1.000000000000000000 ) ) ;
#149 = ORGANIZATION ( 'NEURÈENÝ', 'NEURÈENÝ', '' ) ;
#150 = LINE ( 'NONE', #230, #91 ) ;
#151 = DIRECTION ( 'NONE',  ( 1.000000000000000000, 0.000000000000000000, 0.000000000000000000 ) ) ;
#152 = EDGE_CURVE ( 'NONE', #37, #253, #27, .T. ) ;
#153 = AXIS2_PLACEMENT_3D ( 'NONE', #108, #4, #194 ) ;
#154 = APPLICATION_PROTOCOL_DEFINITION ( 'international standard', 'config_control_design', 1994, #56 ) ;
#155 = COORDINATED_UNIVERSAL_TIME_OFFSET ( 1, 0, .AHEAD. ) ;
#156 = VECTOR ( 'NONE', #204, 1000.000000000000000 ) ;
#157 = ORIENTED_EDGE ( 'NONE', *, *, #216, .T. ) ;
#158 = ORIENTED_EDGE ( 'NONE', *, *, #208, .F. ) ;
#159 = EDGE_CURVE ( 'NONE', #253, #199, #111, .T. ) ;
#160 = CARTESIAN_POINT ( 'NONE',  ( 0.000000000000000000, 0.000000000000000000, 5.000000000000000000 ) ) ;
#161 = CC_DESIGN_APPROVAL ( #180, ( #94 ) ) ;
#162 = CALENDAR_DATE ( 2023, 12, 2 ) ;
#163 = CIRCLE ( 'NONE', #192, 5.250000000000000888 ) ;
#164 = CARTESIAN_POINT ( 'NONE',  ( 0.000000000000000000, 0.000000000000000000, 0.000000000000000000 ) ) ;
#165 = DIRECTION ( 'NONE',  ( -0.000000000000000000, -0.000000000000000000, -1.000000000000000000 ) ) ;
#166 = AXIS2_PLACEMENT_3D ( 'NONE', #73, #201, #75 ) ;
#167 = PERSON_AND_ORGANIZATION ( #95, #149 ) ;
#168 = FACE_OUTER_BOUND ( 'NONE', #124, .T. ) ;
#169 = APPROVAL_DATE_TIME ( #118, #134 ) ;
#170 = PLANE ( 'NONE',  #35 ) ;
#171 = CARTESIAN_POINT ( 'NONE',  ( 0.000000000000000000, 0.000000000000000000, 5.000000000000000000 ) ) ;
#172 = LOCAL_TIME ( 12, 15, 37.00000000000000000, #147 ) ;
#173 = CC_DESIGN_PERSON_AND_ORGANIZATION_ASSIGNMENT ( #202, #58, ( #5 ) ) ;
#174 = DATE_AND_TIME ( #212, #172 ) ;
#175 = DIRECTION ( 'NONE',  ( 0.000000000000000000, 0.000000000000000000, 1.000000000000000000 ) ) ;
#176 = DIRECTION ( 'NONE',  ( -0.000000000000000000, -0.000000000000000000, -1.000000000000000000 ) ) ;
#177 = AXIS2_PLACEMENT_3D ( 'NONE', #90, #176, #244 ) ;
#178 = CARTESIAN_POINT ( 'NONE',  ( 8.000000000000000000, 9.797174393178825657E-16, 5.000000000000000000 ) ) ;
#179 = APPROVAL_STATUS ( 'not_yet_approved' ) ;
#180 = APPROVAL ( #138, 'NEURÈENÝ' ) ;
#181 = DIRECTION ( 'NONE',  ( -0.000000000000000000, -0.000000000000000000, -1.000000000000000000 ) ) ;
#182 = VERTEX_POINT ( 'NONE', #85 ) ;
#183 = CYLINDRICAL_SURFACE ( 'NONE', #102, 8.000000000000000000 ) ;
#184 = ORIENTED_EDGE ( 'NONE', *, *, #240, .T. ) ;
#185 = ADVANCED_FACE ( 'NONE', ( #43, #44 ), #65, .T. ) ;
#186 = CARTESIAN_POINT ( 'NONE',  ( 8.000000000000000000, 9.797174393178825657E-16, 5.000000000000000000 ) ) ;
#187 = AXIS2_PLACEMENT_3D ( 'NONE', #107, #165, #104 ) ;
#188 = DATE_AND_TIME ( #143, #197 ) ;
#189 = AXIS2_PLACEMENT_3D ( 'NONE', #171, #175, #126 ) ;
#190 = APPROVAL_ROLE ( '' ) ;
#191 = CC_DESIGN_PERSON_AND_ORGANIZATION_ASSIGNMENT ( #99, #252, ( #94 ) ) ;
#192 = AXIS2_PLACEMENT_3D ( 'NONE', #125, #213, #151 ) ;
#193 = DIRECTION ( 'NONE',  ( 0.000000000000000000, 0.000000000000000000, 1.000000000000000000 ) ) ;
#194 = DIRECTION ( 'NONE',  ( 1.000000000000000000, 0.000000000000000000, 0.000000000000000000 ) ) ;
#195 = AXIS2_PLACEMENT_3D ( 'NONE', #238, #206, #81 ) ;
#196 = DIRECTION ( 'NONE',  ( 0.000000000000000000, 0.000000000000000000, 1.000000000000000000 ) ) ;
#197 = LOCAL_TIME ( 12, 15, 37.00000000000000000, #106 ) ;
#198 = CIRCLE ( 'NONE', #137, 8.000000000000000000 ) ;
#199 = VERTEX_POINT ( 'NONE', #24 ) ;
#200 = ORIENTED_EDGE ( 'NONE', *, *, #109, .T. ) ;
#201 = DIRECTION ( 'NONE',  ( 0.000000000000000000, 0.000000000000000000, 1.000000000000000000 ) ) ;
#202 = PERSON_AND_ORGANIZATION ( #95, #149 ) ;
#203 = CALENDAR_DATE ( 2023, 12, 2 ) ;
#204 = DIRECTION ( 'NONE',  ( -0.000000000000000000, -0.000000000000000000, -1.000000000000000000 ) ) ;
#205 = APPLICATION_CONTEXT ( 'configuration controlled 3d designs of mechanical parts and assemblies' ) ;
#206 = DIRECTION ( 'NONE',  ( 0.000000000000000000, 0.000000000000000000, 1.000000000000000000 ) ) ;
#207 = ORIENTED_EDGE ( 'NONE', *, *, #117, .T. ) ;
#208 = EDGE_CURVE ( 'NONE', #8, #182, #82, .T. ) ;
#209 = DIRECTION ( 'NONE',  ( 0.000000000000000000, 0.000000000000000000, 1.000000000000000000 ) ) ;
#210 = CC_DESIGN_SECURITY_CLASSIFICATION ( #94, ( #5 ) ) ;
#211 = CARTESIAN_POINT ( 'NONE',  ( -8.000000000000000000, 0.000000000000000000, 0.000000000000000000 ) ) ;
#212 = CALENDAR_DATE ( 2023, 12, 2 ) ;
#213 = DIRECTION ( 'NONE',  ( 0.000000000000000000, 0.000000000000000000, 1.000000000000000000 ) ) ;
#214 = EDGE_LOOP ( 'NONE', ( #98, #71, #207, #9 ) ) ;
#215 = CARTESIAN_POINT ( 'NONE',  ( -5.250000000000000888, 0.000000000000000000, 630.0000000000000000 ) ) ;
#216 = EDGE_CURVE ( 'NONE', #182, #8, #145, .T. ) ;
#217 = CARTESIAN_POINT ( 'NONE',  ( 0.000000000000000000, 0.000000000000000000, 0.000000000000000000 ) ) ;
#218 = MANIFOLD_SOLID_BREP ( 'Pøidat vysunutím3', #42 ) ;
#219 = DIRECTION ( 'NONE',  ( -1.000000000000000000, 0.000000000000000000, 0.000000000000000000 ) ) ;
#220 = APPROVAL_ROLE ( '' ) ;
#221 = CC_DESIGN_PERSON_AND_ORGANIZATION_ASSIGNMENT ( #247, #69, ( #140 ) ) ;
#222 = ORIENTED_EDGE ( 'NONE', *, *, #159, .T. ) ;
#223 = CYLINDRICAL_SURFACE ( 'NONE', #63, 5.250000000000000888 ) ;
#224 = LOCAL_TIME ( 12, 15, 37.00000000000000000, #155 ) ;
#225 = CARTESIAN_POINT ( 'NONE',  ( -5.250000000000000888, 0.000000000000000000, 630.0000000000000000 ) ) ;
#226 = UNCERTAINTY_MEASURE_WITH_UNIT (LENGTH_MEASURE( 1.000000000000000082E-05 ), #130, 'distance_accuracy_value', 'NONE');
#227 = CARTESIAN_POINT ( 'NONE',  ( 5.250000000000000888, 6.429395695523605139E-16, 630.0000000000000000 ) ) ;
#228 = CYLINDRICAL_SURFACE ( 'NONE', #177, 5.250000000000000888 ) ;
#229 = ORIENTED_EDGE ( 'NONE', *, *, #48, .F. ) ;
#230 = CARTESIAN_POINT ( 'NONE',  ( -8.000000000000000000, 0.000000000000000000, 5.000000000000000000 ) ) ;
#231 = CC_DESIGN_PERSON_AND_ORGANIZATION_ASSIGNMENT ( #167, #255, ( #5 ) ) ;
#232 = VERTEX_POINT ( 'NONE', #3 ) ;
#233 = DATE_AND_TIME ( #162, #50 ) ;
#234 = PERSON_AND_ORGANIZATION ( #95, #149 ) ;
#235 = CARTESIAN_POINT ( 'NONE',  ( 0.000000000000000000, 0.000000000000000000, 5.000000000000000000 ) ) ;
#236 = DATE_AND_TIME ( #203, #239 ) ;
#237 = ADVANCED_FACE ( 'NONE', ( #28 ), #228, .T. ) ;
#238 = CARTESIAN_POINT ( 'NONE',  ( 0.000000000000000000, 0.000000000000000000, 0.000000000000000000 ) ) ;
#239 = LOCAL_TIME ( 12, 15, 37.00000000000000000, #83 ) ;
#240 = EDGE_CURVE ( 'NONE', #182, #30, #150, .T. ) ;
#241 = DIRECTION ( 'NONE',  ( 0.000000000000000000, 0.000000000000000000, 1.000000000000000000 ) ) ;
#242 = SHAPE_DEFINITION_REPRESENTATION ( #80, #26 ) ;
#243 = DIRECTION ( 'NONE',  ( 1.000000000000000000, 0.000000000000000000, 0.000000000000000000 ) ) ;
#244 = DIRECTION ( 'NONE',  ( -1.000000000000000000, 0.000000000000000000, 0.000000000000000000 ) ) ;
#245 = ADVANCED_FACE ( 'NONE', ( #127 ), #183, .T. ) ;
#246 = APPROVAL_PERSON_ORGANIZATION ( #47, #134, #220 ) ;
#247 = PERSON_AND_ORGANIZATION ( #95, #149 ) ;
#248 = AXIS2_PLACEMENT_3D ( 'NONE', #235, #193, #34 ) ;
#249 = ORIENTED_EDGE ( 'NONE', *, *, #113, .T. ) ;
#250 = ORIENTED_EDGE ( 'NONE', *, *, #109, .F. ) ;
#251 = EDGE_CURVE ( 'NONE', #199, #232, #23, .T. ) ;
#252 = PERSON_AND_ORGANIZATION_ROLE ( 'classification_officer' ) ;
#253 = VERTEX_POINT ( 'NONE', #11 ) ;
#254 =( GEOMETRIC_REPRESENTATION_CONTEXT ( 3 ) GLOBAL_UNCERTAINTY_ASSIGNED_CONTEXT ( ( #226 ) ) GLOBAL_UNIT_ASSIGNED_CONTEXT ( ( #130, #114, #29 ) ) REPRESENTATION_CONTEXT ( 'NONE', 'WORKASPACE' ) );
#255 = PERSON_AND_ORGANIZATION_ROLE ( 'design_supplier' ) ;
ENDSEC;
END-ISO-10303-21;
