ISO-10303-21;
HEADER;
FILE_DESCRIPTION (( 'STEP AP203' ),
    '1' );
FILE_NAME ('0833.STEP',
    '2023-02-12T12:27:18',
    ( '' ),
    ( '' ),
    'SwSTEP 2.0',
    'SolidWorks 2019',
    '' );
FILE_SCHEMA (( 'CONFIG_CONTROL_DESIGN' ));
ENDSEC;

DATA;
#1 = EDGE_CURVE ( 'NONE', #215, #47, #86, .T. ) ;
#2 = LINE ( 'NONE', #13, #101 ) ;
#3 = LOCAL_TIME ( 13, 27, 18.00000000000000000, #177 ) ;
#4 = DIRECTION ( 'NONE',  ( 1.000000000000000000, 0.000000000000000000, 0.000000000000000000 ) ) ;
#5 = CARTESIAN_POINT ( 'NONE',  ( 0.000000000000000000, 0.000000000000000000, 3.000000000000000000 ) ) ;
#6 = EDGE_LOOP ( 'NONE', ( #39, #231 ) ) ;
#7 = ADVANCED_FACE ( 'NONE', ( #19 ), #187, .T. ) ;
#8 = PERSON_AND_ORGANIZATION ( #139, #163 ) ;
#9 = PRODUCT_DEFINITION_SHAPE ( 'NONE', 'NONE',  #14 ) ;
#10 = APPROVAL_STATUS ( 'not_yet_approved' ) ;
#11 = APPROVAL_PERSON_ORGANIZATION ( #152, #183, #174 ) ;
#12 = SECURITY_CLASSIFICATION_LEVEL ( 'unclassified' ) ;
#13 = CARTESIAN_POINT ( 'NONE',  ( 5.000000000000000000, 6.123233995736766282E-16, 3.000000000000000000 ) ) ;
#14 = PRODUCT_DEFINITION ( 'NEZNÁMÝ', '', #138, #50 ) ;
#15 = DIRECTION ( 'NONE',  ( 0.000000000000000000, 0.000000000000000000, 1.000000000000000000 ) ) ;
#16 = CYLINDRICAL_SURFACE ( 'NONE', #181, 5.000000000000000000 ) ;
#17 = DIRECTION ( 'NONE',  ( 1.000000000000000000, 0.000000000000000000, 0.000000000000000000 ) ) ;
#18 = CIRCLE ( 'NONE', #155, 5.000000000000000000 ) ;
#19 = FACE_OUTER_BOUND ( 'NONE', #21, .T. ) ;
#20 = PERSON_AND_ORGANIZATION_ROLE ( 'design_owner' ) ;
#21 = EDGE_LOOP ( 'NONE', ( #127, #125, #42, #208 ) ) ;
#22 = ADVANCED_FACE ( 'NONE', ( #82 ), #238, .T. ) ;
#23 = AXIS2_PLACEMENT_3D ( 'NONE', #33, #76, #242 ) ;
#24 = DATE_AND_TIME ( #89, #3 ) ;
#25 = EDGE_CURVE ( 'NONE', #191, #213, #114, .T. ) ;
#26 = DIRECTION ( 'NONE',  ( -0.000000000000000000, -0.000000000000000000, -1.000000000000000000 ) ) ;
#27 = APPROVAL_STATUS ( 'not_yet_approved' ) ;
#28 = LINE ( 'NONE', #178, #115 ) ;
#29 = APPROVAL_PERSON_ORGANIZATION ( #108, #194, #149 ) ;
#30 = AXIS2_PLACEMENT_3D ( 'NONE', #170, #26, #66 ) ;
#31 = CC_DESIGN_SECURITY_CLASSIFICATION ( #105, ( #138 ) ) ;
#32 = CIRCLE ( 'NONE', #237, 2.600000000000000089 ) ;
#33 = CARTESIAN_POINT ( 'NONE',  ( 0.000000000000000000, 0.000000000000000000, 315.0000000000000000 ) ) ;
#34 = PRODUCT_RELATED_PRODUCT_CATEGORY ( 'detail', '', ( #250 ) ) ;
#35 = VECTOR ( 'NONE', #161, 1000.000000000000000 ) ;
#36 = VERTEX_POINT ( 'NONE', #234 ) ;
#37 = CARTESIAN_POINT ( 'NONE',  ( 0.000000000000000000, 0.000000000000000000, 315.0000000000000000 ) ) ;
#38 = VERTEX_POINT ( 'NONE', #212 ) ;
#39 = ORIENTED_EDGE ( 'NONE', *, *, #104, .T. ) ;
#40 = DIRECTION ( 'NONE',  ( 0.000000000000000000, 0.000000000000000000, 1.000000000000000000 ) ) ;
#41 = DIRECTION ( 'NONE',  ( -0.000000000000000000, -0.000000000000000000, -1.000000000000000000 ) ) ;
#42 = ORIENTED_EDGE ( 'NONE', *, *, #229, .T. ) ;
#43 = ORIENTED_EDGE ( 'NONE', *, *, #1, .F. ) ;
#44 = COORDINATED_UNIVERSAL_TIME_OFFSET ( 1, 0, .AHEAD. ) ;
#45 = AXIS2_PLACEMENT_3D ( 'NONE', #107, #233, #247 ) ;
#46 = FACE_OUTER_BOUND ( 'NONE', #64, .T. ) ;
#47 = VERTEX_POINT ( 'NONE', #85 ) ;
#48 =( NAMED_UNIT ( * ) SI_UNIT ( $, .STERADIAN. ) SOLID_ANGLE_UNIT ( ) );
#49 = DIRECTION ( 'NONE',  ( 0.000000000000000000, 0.000000000000000000, 1.000000000000000000 ) ) ;
#50 = DESIGN_CONTEXT ( 'detailed design', #60, 'design' ) ;
#51 = APPLICATION_PROTOCOL_DEFINITION ( 'international standard', 'config_control_design', 1994, #54 ) ;
#52 = MANIFOLD_SOLID_BREP ( 'Pøidat vysunutím3', #173 ) ;
#53 = ADVANCED_FACE ( 'NONE', ( #113 ), #16, .T. ) ;
#54 = APPLICATION_CONTEXT ( 'configuration controlled 3d designs of mechanical parts and assemblies' ) ;
#55 = VECTOR ( 'NONE', #41, 1000.000000000000000 ) ;
#56 = CARTESIAN_POINT ( 'NONE',  ( 0.000000000000000000, 0.000000000000000000, 3.000000000000000000 ) ) ;
#57 = CIRCLE ( 'NONE', #204, 5.000000000000000000 ) ;
#58 = DIRECTION ( 'NONE',  ( 0.000000000000000000, 0.000000000000000000, 1.000000000000000000 ) ) ;
#59 = ORIENTED_EDGE ( 'NONE', *, *, #112, .T. ) ;
#60 = APPLICATION_CONTEXT ( 'configuration controlled 3d designs of mechanical parts and assemblies' ) ;
#61 = CIRCLE ( 'NONE', #151, 2.600000000000000089 ) ;
#62 = DATE_AND_TIME ( #239, #79 ) ;
#63 = ADVANCED_FACE ( 'NONE', ( #220, #92 ), #218, .T. ) ;
#64 = EDGE_LOOP ( 'NONE', ( #143, #144 ) ) ;
#65 = COORDINATED_UNIVERSAL_TIME_OFFSET ( 1, 0, .AHEAD. ) ;
#66 = DIRECTION ( 'NONE',  ( -1.000000000000000000, 0.000000000000000000, 0.000000000000000000 ) ) ;
#67 = PERSON_AND_ORGANIZATION_ROLE ( 'creator' ) ;
#68 = ORIENTED_EDGE ( 'NONE', *, *, #201, .F. ) ;
#69 = AXIS2_PLACEMENT_3D ( 'NONE', #37, #109, #148 ) ;
#70 = DATE_AND_TIME ( #87, #224 ) ;
#71 = APPROVAL_DATE_TIME ( #70, #197 ) ;
#72 = APPROVAL_PERSON_ORGANIZATION ( #84, #197, #249 ) ;
#73 = CARTESIAN_POINT ( 'NONE',  ( 0.000000000000000000, 0.000000000000000000, 3.000000000000000000 ) ) ;
#74 = CARTESIAN_POINT ( 'NONE',  ( 0.000000000000000000, 0.000000000000000000, 3.000000000000000000 ) ) ;
#75 = CC_DESIGN_DATE_AND_TIME_ASSIGNMENT ( #24, #175, ( #105 ) ) ;
#76 = DIRECTION ( 'NONE',  ( -0.000000000000000000, -0.000000000000000000, -1.000000000000000000 ) ) ;
#77 = ORIENTED_EDGE ( 'NONE', *, *, #206, .T. ) ;
#78 = DIRECTION ( 'NONE',  ( 1.000000000000000000, 0.000000000000000000, -0.000000000000000000 ) ) ;
#79 = LOCAL_TIME ( 13, 27, 18.00000000000000000, #216 ) ;
#80 = DATE_AND_TIME ( #147, #184 ) ;
#81 = CC_DESIGN_PERSON_AND_ORGANIZATION_ASSIGNMENT ( #171, #210, ( #138 ) ) ;
#82 = FACE_OUTER_BOUND ( 'NONE', #164, .T. ) ;
#83 = ORIENTED_EDGE ( 'NONE', *, *, #112, .F. ) ;
#84 = PERSON_AND_ORGANIZATION ( #139, #163 ) ;
#85 = CARTESIAN_POINT ( 'NONE',  ( 2.600000000000000089, 3.184081677783118191E-16, 3.000000000000000000 ) ) ;
#86 = CIRCLE ( 'NONE', #241, 2.600000000000000089 ) ;
#87 = CALENDAR_DATE ( 2023, 12, 2 ) ;
#88 = CC_DESIGN_APPROVAL ( #197, ( #138 ) ) ;
#89 = CALENDAR_DATE ( 2023, 12, 2 ) ;
#90 = CARTESIAN_POINT ( 'NONE',  ( 0.000000000000000000, 0.000000000000000000, 315.0000000000000000 ) ) ;
#91 = DIRECTION ( 'NONE',  ( 0.000000000000000000, 0.000000000000000000, 1.000000000000000000 ) ) ;
#92 = FACE_OUTER_BOUND ( 'NONE', #6, .T. ) ;
#93 = DIRECTION ( 'NONE',  ( -0.000000000000000000, -0.000000000000000000, -1.000000000000000000 ) ) ;
#94 = AXIS2_PLACEMENT_3D ( 'NONE', #198, #40, #236 ) ;
#95 = EDGE_CURVE ( 'NONE', #213, #191, #61, .T. ) ;
#96 = CARTESIAN_POINT ( 'NONE',  ( 5.000000000000000000, 6.123233995736766282E-16, 0.000000000000000000 ) ) ;
#97 = CARTESIAN_POINT ( 'NONE',  ( 0.000000000000000000, 0.000000000000000000, 3.000000000000000000 ) ) ;
#98 = EDGE_CURVE ( 'NONE', #47, #215, #32, .T. ) ;
#99 = LINE ( 'NONE', #182, #35 ) ;
#100 = ADVANCED_BREP_SHAPE_REPRESENTATION ( '0833', ( #52, #94 ), #217 ) ;
#101 = VECTOR ( 'NONE', #117, 1000.000000000000000 ) ;
#102 = DIRECTION ( 'NONE',  ( -1.000000000000000000, 0.000000000000000000, 0.000000000000000000 ) ) ;
#103 = ORIENTED_EDGE ( 'NONE', *, *, #124, .T. ) ;
#104 = EDGE_CURVE ( 'NONE', #248, #36, #185, .T. ) ;
#105 = SECURITY_CLASSIFICATION ( '', '', #12 ) ;
#106 = APPLICATION_PROTOCOL_DEFINITION ( 'international standard', 'config_control_design', 1994, #60 ) ;
#107 = CARTESIAN_POINT ( 'NONE',  ( 0.000000000000000000, 0.000000000000000000, 0.000000000000000000 ) ) ;
#108 = PERSON_AND_ORGANIZATION ( #139, #163 ) ;
#109 = DIRECTION ( 'NONE',  ( 0.000000000000000000, 0.000000000000000000, 1.000000000000000000 ) ) ;
#110 = APPROVAL_DATE_TIME ( #62, #183 ) ;
#111 = CC_DESIGN_APPROVAL ( #183, ( #14 ) ) ;
#112 = EDGE_CURVE ( 'NONE', #36, #192, #2, .T. ) ;
#113 = FACE_OUTER_BOUND ( 'NONE', #246, .T. ) ;
#114 = CIRCLE ( 'NONE', #69, 2.600000000000000089 ) ;
#115 = VECTOR ( 'NONE', #157, 1000.000000000000000 ) ;
#116 = DIRECTION ( 'NONE',  ( 0.000000000000000000, 0.000000000000000000, 1.000000000000000000 ) ) ;
#117 = DIRECTION ( 'NONE',  ( -0.000000000000000000, -0.000000000000000000, -1.000000000000000000 ) ) ;
#118 = ORIENTED_EDGE ( 'NONE', *, *, #95, .T. ) ;
#119 = CARTESIAN_POINT ( 'NONE',  ( -5.000000000000000000, 0.000000000000000000, 3.000000000000000000 ) ) ;
#120 =( NAMED_UNIT ( * ) PLANE_ANGLE_UNIT ( ) SI_UNIT ( $, .RADIAN. ) );
#121 = CARTESIAN_POINT ( 'NONE',  ( 2.600000000000000089, 3.184081677783118191E-16, 315.0000000000000000 ) ) ;
#122 = CC_DESIGN_PERSON_AND_ORGANIZATION_ASSIGNMENT ( #154, #195, ( #105 ) ) ;
#123 = DIRECTION ( 'NONE',  ( 0.000000000000000000, 0.000000000000000000, 1.000000000000000000 ) ) ;
#124 = EDGE_CURVE ( 'NONE', #248, #38, #28, .T. ) ;
#125 = ORIENTED_EDGE ( 'NONE', *, *, #95, .F. ) ;
#126 = DIRECTION ( 'NONE',  ( -0.000000000000000000, -0.000000000000000000, -1.000000000000000000 ) ) ;
#127 = ORIENTED_EDGE ( 'NONE', *, *, #206, .F. ) ;
#128 = COORDINATED_UNIVERSAL_TIME_OFFSET ( 1, 0, .AHEAD. ) ;
#129 = DIRECTION ( 'NONE',  ( 1.000000000000000000, 0.000000000000000000, 0.000000000000000000 ) ) ;
#130 = ORIENTED_EDGE ( 'NONE', *, *, #229, .F. ) ;
#131 = DATE_AND_TIME ( #255, #160 ) ;
#132 = PLANE ( 'NONE',  #168 ) ;
#133 = CARTESIAN_POINT ( 'NONE',  ( 0.000000000000000000, 0.000000000000000000, 3.000000000000000000 ) ) ;
#134 = EDGE_LOOP ( 'NONE', ( #43, #245 ) ) ;
#135 = DIRECTION ( 'NONE',  ( 1.000000000000000000, 0.000000000000000000, -0.000000000000000000 ) ) ;
#136 = SHAPE_DEFINITION_REPRESENTATION ( #9, #100 ) ;
#137 = CC_DESIGN_PERSON_AND_ORGANIZATION_ASSIGNMENT ( #240, #67, ( #138 ) ) ;
#138 = PRODUCT_DEFINITION_FORMATION_WITH_SPECIFIED_SOURCE ( 'LIBOVOLNÝ', '', #250, .NOT_KNOWN. ) ;
#139 = PERSON ( 'NEURÈENÝ', 'NEURÈENÝ', 'NEURÈENÝ', ('NEURÈENÝ'), ('NEURÈENÝ'), ('NEURÈENÝ') ) ;
#140 = DIRECTION ( 'NONE',  ( 1.000000000000000000, 0.000000000000000000, 0.000000000000000000 ) ) ;
#141 = FACE_OUTER_BOUND ( 'NONE', #221, .T. ) ;
#142 = CC_DESIGN_PERSON_AND_ORGANIZATION_ASSIGNMENT ( #252, #196, ( #14 ) ) ;
#143 = ORIENTED_EDGE ( 'NONE', *, *, #176, .F. ) ;
#144 = ORIENTED_EDGE ( 'NONE', *, *, #244, .F. ) ;
#145 = FACE_OUTER_BOUND ( 'NONE', #235, .T. ) ;
#146 = ORIENTED_EDGE ( 'NONE', *, *, #124, .F. ) ;
#147 = CALENDAR_DATE ( 2023, 12, 2 ) ;
#148 = DIRECTION ( 'NONE',  ( 1.000000000000000000, 0.000000000000000000, 0.000000000000000000 ) ) ;
#149 = APPROVAL_ROLE ( '' ) ;
#150 = AXIS2_PLACEMENT_3D ( 'NONE', #227, #126, #102 ) ;
#151 = AXIS2_PLACEMENT_3D ( 'NONE', #90, #91, #200 ) ;
#152 = PERSON_AND_ORGANIZATION ( #139, #163 ) ;
#153 =( LENGTH_UNIT ( ) NAMED_UNIT ( * ) SI_UNIT ( .MILLI., .METRE. ) );
#154 = PERSON_AND_ORGANIZATION ( #139, #163 ) ;
#155 = AXIS2_PLACEMENT_3D ( 'NONE', #205, #165, #226 ) ;
#156 = DIRECTION ( 'NONE',  ( 0.000000000000000000, 0.000000000000000000, 1.000000000000000000 ) ) ;
#157 = DIRECTION ( 'NONE',  ( -0.000000000000000000, -0.000000000000000000, -1.000000000000000000 ) ) ;
#158 = ADVANCED_FACE ( 'NONE', ( #141 ), #186, .T. ) ;
#159 = DIRECTION ( 'NONE',  ( 0.000000000000000000, 0.000000000000000000, 1.000000000000000000 ) ) ;
#160 = LOCAL_TIME ( 13, 27, 18.00000000000000000, #44 ) ;
#161 = DIRECTION ( 'NONE',  ( -0.000000000000000000, -0.000000000000000000, -1.000000000000000000 ) ) ;
#162 = ADVANCED_FACE ( 'NONE', ( #145 ), #223, .T. ) ;
#163 = ORGANIZATION ( 'NEURÈENÝ', 'NEURÈENÝ', '' ) ;
#164 = EDGE_LOOP ( 'NONE', ( #68, #59, #202, #146 ) ) ;
#165 = DIRECTION ( 'NONE',  ( 0.000000000000000000, 0.000000000000000000, 1.000000000000000000 ) ) ;
#166 = CARTESIAN_POINT ( 'NONE',  ( 0.000000000000000000, 0.000000000000000000, 315.0000000000000000 ) ) ;
#167 = ORIENTED_EDGE ( 'NONE', *, *, #98, .T. ) ;
#168 = AXIS2_PLACEMENT_3D ( 'NONE', #253, #49, #135 ) ;
#169 = APPROVAL_STATUS ( 'not_yet_approved' ) ;
#170 = CARTESIAN_POINT ( 'NONE',  ( 0.000000000000000000, 0.000000000000000000, 3.000000000000000000 ) ) ;
#171 = PERSON_AND_ORGANIZATION ( #139, #163 ) ;
#172 = CARTESIAN_POINT ( 'NONE',  ( -2.600000000000000089, 0.000000000000000000, 3.000000000000000000 ) ) ;
#173 = CLOSED_SHELL ( 'NONE', ( #162, #22, #53, #63, #225, #7, #158 ) ) ;
#174 = APPROVAL_ROLE ( '' ) ;
#175 = DATE_TIME_ROLE ( 'classification_date' ) ;
#176 = EDGE_CURVE ( 'NONE', #38, #192, #18, .T. ) ;
#177 = COORDINATED_UNIVERSAL_TIME_OFFSET ( 1, 0, .AHEAD. ) ;
#178 = CARTESIAN_POINT ( 'NONE',  ( -5.000000000000000000, 0.000000000000000000, 3.000000000000000000 ) ) ;
#179 = CC_DESIGN_APPROVAL ( #194, ( #105 ) ) ;
#180 = DIRECTION ( 'NONE',  ( 1.000000000000000000, 0.000000000000000000, -0.000000000000000000 ) ) ;
#181 = AXIS2_PLACEMENT_3D ( 'NONE', #73, #93, #199 ) ;
#182 = CARTESIAN_POINT ( 'NONE',  ( 2.600000000000000089, 3.184081677783118191E-16, 315.0000000000000000 ) ) ;
#183 = APPROVAL ( #27, 'NEURÈENÝ' ) ;
#184 = LOCAL_TIME ( 13, 27, 18.00000000000000000, #128 ) ;
#185 = CIRCLE ( 'NONE', #219, 5.000000000000000000 ) ;
#186 = PLANE ( 'NONE',  #254 ) ;
#187 = CYLINDRICAL_SURFACE ( 'NONE', #150, 2.600000000000000089 ) ;
#188 = ORIENTED_EDGE ( 'NONE', *, *, #104, .F. ) ;
#189 = ORIENTED_EDGE ( 'NONE', *, *, #25, .F. ) ;
#190 = DATE_TIME_ROLE ( 'creation_date' ) ;
#191 = VERTEX_POINT ( 'NONE', #121 ) ;
#192 = VERTEX_POINT ( 'NONE', #96 ) ;
#193 = CIRCLE ( 'NONE', #45, 5.000000000000000000 ) ;
#194 = APPROVAL ( #10, 'NEURÈENÝ' ) ;
#195 = PERSON_AND_ORGANIZATION_ROLE ( 'classification_officer' ) ;
#196 = PERSON_AND_ORGANIZATION_ROLE ( 'creator' ) ;
#197 = APPROVAL ( #169, 'NEURÈENÝ' ) ;
#198 = CARTESIAN_POINT ( 'NONE',  ( 0.000000000000000000, 0.000000000000000000, 0.000000000000000000 ) ) ;
#199 = DIRECTION ( 'NONE',  ( -1.000000000000000000, 0.000000000000000000, 0.000000000000000000 ) ) ;
#200 = DIRECTION ( 'NONE',  ( 1.000000000000000000, 0.000000000000000000, 0.000000000000000000 ) ) ;
#201 = EDGE_CURVE ( 'NONE', #36, #248, #57, .T. ) ;
#202 = ORIENTED_EDGE ( 'NONE', *, *, #244, .T. ) ;
#203 = AXIS2_PLACEMENT_3D ( 'NONE', #56, #116, #180 ) ;
#204 = AXIS2_PLACEMENT_3D ( 'NONE', #97, #58, #17 ) ;
#205 = CARTESIAN_POINT ( 'NONE',  ( 0.000000000000000000, 0.000000000000000000, 0.000000000000000000 ) ) ;
#206 = EDGE_CURVE ( 'NONE', #191, #47, #99, .T. ) ;
#207 = MECHANICAL_CONTEXT ( 'NONE', #54, 'mechanical' ) ;
#208 = ORIENTED_EDGE ( 'NONE', *, *, #1, .T. ) ;
#209 = CC_DESIGN_PERSON_AND_ORGANIZATION_ASSIGNMENT ( #8, #20, ( #250 ) ) ;
#210 = PERSON_AND_ORGANIZATION_ROLE ( 'design_supplier' ) ;
#211 = LINE ( 'NONE', #228, #55 ) ;
#212 = CARTESIAN_POINT ( 'NONE',  ( -5.000000000000000000, 0.000000000000000000, 0.000000000000000000 ) ) ;
#213 = VERTEX_POINT ( 'NONE', #243 ) ;
#214 = APPROVAL_DATE_TIME ( #131, #194 ) ;
#215 = VERTEX_POINT ( 'NONE', #172 ) ;
#216 = COORDINATED_UNIVERSAL_TIME_OFFSET ( 1, 0, .AHEAD. ) ;
#217 =( GEOMETRIC_REPRESENTATION_CONTEXT ( 3 ) GLOBAL_UNCERTAINTY_ASSIGNED_CONTEXT ( ( #232 ) ) GLOBAL_UNIT_ASSIGNED_CONTEXT ( ( #153, #120, #48 ) ) REPRESENTATION_CONTEXT ( 'NONE', 'WORKASPACE' ) );
#218 = PLANE ( 'NONE',  #203 ) ;
#219 = AXIS2_PLACEMENT_3D ( 'NONE', #74, #156, #140 ) ;
#220 = FACE_BOUND ( 'NONE', #134, .T. ) ;
#221 = EDGE_LOOP ( 'NONE', ( #118, #230 ) ) ;
#222 = CC_DESIGN_DATE_AND_TIME_ASSIGNMENT ( #80, #190, ( #14 ) ) ;
#223 = CYLINDRICAL_SURFACE ( 'NONE', #23, 2.600000000000000089 ) ;
#224 = LOCAL_TIME ( 13, 27, 18.00000000000000000, #65 ) ;
#225 = ADVANCED_FACE ( 'NONE', ( #46 ), #132, .F. ) ;
#226 = DIRECTION ( 'NONE',  ( 1.000000000000000000, 0.000000000000000000, 0.000000000000000000 ) ) ;
#227 = CARTESIAN_POINT ( 'NONE',  ( 0.000000000000000000, 0.000000000000000000, 315.0000000000000000 ) ) ;
#228 = CARTESIAN_POINT ( 'NONE',  ( -2.600000000000000089, 0.000000000000000000, 315.0000000000000000 ) ) ;
#229 = EDGE_CURVE ( 'NONE', #213, #215, #211, .T. ) ;
#230 = ORIENTED_EDGE ( 'NONE', *, *, #25, .T. ) ;
#231 = ORIENTED_EDGE ( 'NONE', *, *, #201, .T. ) ;
#232 = UNCERTAINTY_MEASURE_WITH_UNIT (LENGTH_MEASURE( 1.000000000000000082E-05 ), #153, 'distance_accuracy_value', 'NONE');
#233 = DIRECTION ( 'NONE',  ( 0.000000000000000000, 0.000000000000000000, 1.000000000000000000 ) ) ;
#234 = CARTESIAN_POINT ( 'NONE',  ( 5.000000000000000000, 6.123233995736766282E-16, 3.000000000000000000 ) ) ;
#235 = EDGE_LOOP ( 'NONE', ( #189, #77, #167, #130 ) ) ;
#236 = DIRECTION ( 'NONE',  ( 1.000000000000000000, 0.000000000000000000, 0.000000000000000000 ) ) ;
#237 = AXIS2_PLACEMENT_3D ( 'NONE', #5, #15, #4 ) ;
#238 = CYLINDRICAL_SURFACE ( 'NONE', #30, 5.000000000000000000 ) ;
#239 = CALENDAR_DATE ( 2023, 12, 2 ) ;
#240 = PERSON_AND_ORGANIZATION ( #139, #163 ) ;
#241 = AXIS2_PLACEMENT_3D ( 'NONE', #133, #123, #129 ) ;
#242 = DIRECTION ( 'NONE',  ( -1.000000000000000000, 0.000000000000000000, 0.000000000000000000 ) ) ;
#243 = CARTESIAN_POINT ( 'NONE',  ( -2.600000000000000089, 0.000000000000000000, 315.0000000000000000 ) ) ;
#244 = EDGE_CURVE ( 'NONE', #192, #38, #193, .T. ) ;
#245 = ORIENTED_EDGE ( 'NONE', *, *, #98, .F. ) ;
#246 = EDGE_LOOP ( 'NONE', ( #83, #188, #103, #251 ) ) ;
#247 = DIRECTION ( 'NONE',  ( 1.000000000000000000, 0.000000000000000000, 0.000000000000000000 ) ) ;
#248 = VERTEX_POINT ( 'NONE', #119 ) ;
#249 = APPROVAL_ROLE ( '' ) ;
#250 = PRODUCT ( '0833', '0833', '', ( #207 ) ) ;
#251 = ORIENTED_EDGE ( 'NONE', *, *, #176, .T. ) ;
#252 = PERSON_AND_ORGANIZATION ( #139, #163 ) ;
#253 = CARTESIAN_POINT ( 'NONE',  ( 0.000000000000000000, 0.000000000000000000, 0.000000000000000000 ) ) ;
#254 = AXIS2_PLACEMENT_3D ( 'NONE', #166, #159, #78 ) ;
#255 = CALENDAR_DATE ( 2023, 12, 2 ) ;
ENDSEC;
END-ISO-10303-21;
