ISO-10303-21;
HEADER;
FILE_DESCRIPTION (( 'STEP AP203' ),
    '1' );
FILE_NAME ('53c7.STEP',
    '2023-02-12T12:34:47',
    ( '' ),
    ( '' ),
    'SwSTEP 2.0',
    'SolidWorks 2019',
    '' );
FILE_SCHEMA (( 'CONFIG_CONTROL_DESIGN' ));
ENDSEC;

DATA;
#1 = APPROVAL_ROLE ( '' ) ;
#2 = VECTOR ( 'NONE', #58, 1000.000000000000000 ) ;
#3 = CIRCLE ( 'NONE', #71, 2.100000000000000089 ) ;
#4 = ADVANCED_FACE ( 'NONE', ( #55, #250 ), #120, .T. ) ;
#5 = VERTEX_POINT ( 'NONE', #229 ) ;
#6 = DIRECTION ( 'NONE',  ( -1.000000000000000000, 0.000000000000000000, 0.000000000000000000 ) ) ;
#7 = CARTESIAN_POINT ( 'NONE',  ( 0.000000000000000000, 0.000000000000000000, 3.000000000000000000 ) ) ;
#8 = CC_DESIGN_PERSON_AND_ORGANIZATION_ASSIGNMENT ( #46, #165, ( #118 ) ) ;
#9 = DIRECTION ( 'NONE',  ( 0.000000000000000000, 0.000000000000000000, 1.000000000000000000 ) ) ;
#10 = DIRECTION ( 'NONE',  ( -0.000000000000000000, -0.000000000000000000, -1.000000000000000000 ) ) ;
#11 =( NAMED_UNIT ( * ) PLANE_ANGLE_UNIT ( ) SI_UNIT ( $, .RADIAN. ) );
#12 = CIRCLE ( 'NONE', #105, 4.000000000000000000 ) ;
#13 = CARTESIAN_POINT ( 'NONE',  ( 4.000000000000000000, 4.898587196589412829E-16, 3.000000000000000000 ) ) ;
#14 = CARTESIAN_POINT ( 'NONE',  ( 0.000000000000000000, 0.000000000000000000, 3.000000000000000000 ) ) ;
#15 = CIRCLE ( 'NONE', #170, 4.000000000000000000 ) ;
#16 = LOCAL_TIME ( 13, 34, 47.00000000000000000, #131 ) ;
#17 = CALENDAR_DATE ( 2023, 12, 2 ) ;
#18 = PERSON_AND_ORGANIZATION ( #189, #214 ) ;
#19 = ADVANCED_FACE ( 'NONE', ( #24 ), #226, .T. ) ;
#20 = ORIENTED_EDGE ( 'NONE', *, *, #175, .F. ) ;
#21 = ORIENTED_EDGE ( 'NONE', *, *, #171, .F. ) ;
#22 = ORIENTED_EDGE ( 'NONE', *, *, #191, .T. ) ;
#23 = APPLICATION_CONTEXT ( 'configuration controlled 3d designs of mechanical parts and assemblies' ) ;
#24 = FACE_OUTER_BOUND ( 'NONE', #88, .T. ) ;
#25 = VECTOR ( 'NONE', #141, 1000.000000000000000 ) ;
#26 = DATE_AND_TIME ( #154, #31 ) ;
#27 = CARTESIAN_POINT ( 'NONE',  ( 4.000000000000000000, 4.898587196589412829E-16, 3.000000000000000000 ) ) ;
#28 = CARTESIAN_POINT ( 'NONE',  ( -4.000000000000000000, 0.000000000000000000, 0.000000000000000000 ) ) ;
#29 = CC_DESIGN_PERSON_AND_ORGANIZATION_ASSIGNMENT ( #182, #96, ( #172 ) ) ;
#30 = CARTESIAN_POINT ( 'NONE',  ( 0.000000000000000000, 0.000000000000000000, 3.000000000000000000 ) ) ;
#31 = LOCAL_TIME ( 13, 34, 47.00000000000000000, #245 ) ;
#32 = DIRECTION ( 'NONE',  ( -1.000000000000000000, 0.000000000000000000, 0.000000000000000000 ) ) ;
#33 = DIRECTION ( 'NONE',  ( 1.000000000000000000, 0.000000000000000000, 0.000000000000000000 ) ) ;
#34 = CIRCLE ( 'NONE', #82, 2.100000000000000089 ) ;
#35 = LOCAL_TIME ( 13, 34, 47.00000000000000000, #56 ) ;
#36 = CARTESIAN_POINT ( 'NONE',  ( 0.000000000000000000, 0.000000000000000000, 0.000000000000000000 ) ) ;
#37 = DIRECTION ( 'NONE',  ( 1.000000000000000000, 0.000000000000000000, 0.000000000000000000 ) ) ;
#38 = CC_DESIGN_PERSON_AND_ORGANIZATION_ASSIGNMENT ( #149, #85, ( #137 ) ) ;
#39 = AXIS2_PLACEMENT_3D ( 'NONE', #83, #254, #199 ) ;
#40 = APPROVAL_DATE_TIME ( #220, #121 ) ;
#41 = CC_DESIGN_APPROVAL ( #121, ( #228 ) ) ;
#42 = ORIENTED_EDGE ( 'NONE', *, *, #217, .F. ) ;
#43 = ADVANCED_FACE ( 'NONE', ( #230 ), #153, .T. ) ;
#44 = APPROVAL_STATUS ( 'not_yet_approved' ) ;
#45 = VERTEX_POINT ( 'NONE', #95 ) ;
#46 = PERSON_AND_ORGANIZATION ( #189, #214 ) ;
#47 = AXIS2_PLACEMENT_3D ( 'NONE', #7, #211, #247 ) ;
#48 = VERTEX_POINT ( 'NONE', #157 ) ;
#49 = CIRCLE ( 'NONE', #89, 2.100000000000000089 ) ;
#50 = DATE_TIME_ROLE ( 'classification_date' ) ;
#51 = VERTEX_POINT ( 'NONE', #27 ) ;
#52 = CARTESIAN_POINT ( 'NONE',  ( 0.000000000000000000, 0.000000000000000000, 0.000000000000000000 ) ) ;
#53 = DIRECTION ( 'NONE',  ( 0.000000000000000000, 0.000000000000000000, 1.000000000000000000 ) ) ;
#54 = AXIS2_PLACEMENT_3D ( 'NONE', #36, #163, #235 ) ;
#55 = FACE_BOUND ( 'NONE', #128, .T. ) ;
#56 = COORDINATED_UNIVERSAL_TIME_OFFSET ( 1, 0, .AHEAD. ) ;
#57 = PLANE ( 'NONE',  #97 ) ;
#58 = DIRECTION ( 'NONE',  ( -0.000000000000000000, -0.000000000000000000, -1.000000000000000000 ) ) ;
#59 = CC_DESIGN_DATE_AND_TIME_ASSIGNMENT ( #26, #50, ( #172 ) ) ;
#60 = UNCERTAINTY_MEASURE_WITH_UNIT (LENGTH_MEASURE( 1.000000000000000082E-05 ), #178, 'distance_accuracy_value', 'NONE');
#61 = CIRCLE ( 'NONE', #54, 4.000000000000000000 ) ;
#62 = DIRECTION ( 'NONE',  ( -0.000000000000000000, -0.000000000000000000, -1.000000000000000000 ) ) ;
#63 = PERSON_AND_ORGANIZATION ( #189, #214 ) ;
#64 = CARTESIAN_POINT ( 'NONE',  ( 0.000000000000000000, 0.000000000000000000, 800.0000000000000000 ) ) ;
#65 = APPROVAL_STATUS ( 'not_yet_approved' ) ;
#66 = ORIENTED_EDGE ( 'NONE', *, *, #207, .T. ) ;
#67 = AXIS2_PLACEMENT_3D ( 'NONE', #72, #93, #134 ) ;
#68 = ORIENTED_EDGE ( 'NONE', *, *, #94, .F. ) ;
#69 = APPROVAL_ROLE ( '' ) ;
#70 = ORIENTED_EDGE ( 'NONE', *, *, #191, .F. ) ;
#71 = AXIS2_PLACEMENT_3D ( 'NONE', #180, #81, #216 ) ;
#72 = CARTESIAN_POINT ( 'NONE',  ( 0.000000000000000000, 0.000000000000000000, 800.0000000000000000 ) ) ;
#73 = SHAPE_DEFINITION_REPRESENTATION ( #130, #110 ) ;
#74 = DIRECTION ( 'NONE',  ( -0.000000000000000000, -0.000000000000000000, -1.000000000000000000 ) ) ;
#75 = CARTESIAN_POINT ( 'NONE',  ( 0.000000000000000000, 0.000000000000000000, 0.000000000000000000 ) ) ;
#76 = FACE_OUTER_BOUND ( 'NONE', #221, .T. ) ;
#77 = ADVANCED_FACE ( 'NONE', ( #76 ), #101, .F. ) ;
#78 = CARTESIAN_POINT ( 'NONE',  ( 4.000000000000000000, 4.898587196589412829E-16, 0.000000000000000000 ) ) ;
#79 = FACE_OUTER_BOUND ( 'NONE', #206, .T. ) ;
#80 = CYLINDRICAL_SURFACE ( 'NONE', #224, 2.100000000000000089 ) ;
#81 = DIRECTION ( 'NONE',  ( 0.000000000000000000, 0.000000000000000000, 1.000000000000000000 ) ) ;
#82 = AXIS2_PLACEMENT_3D ( 'NONE', #248, #53, #249 ) ;
#83 = CARTESIAN_POINT ( 'NONE',  ( 0.000000000000000000, 0.000000000000000000, 3.000000000000000000 ) ) ;
#84 = PERSON_AND_ORGANIZATION ( #189, #214 ) ;
#85 = PERSON_AND_ORGANIZATION_ROLE ( 'creator' ) ;
#86 =( NAMED_UNIT ( * ) SI_UNIT ( $, .STERADIAN. ) SOLID_ANGLE_UNIT ( ) );
#87 = CC_DESIGN_APPROVAL ( #122, ( #137 ) ) ;
#88 = EDGE_LOOP ( 'NONE', ( #112, #169, #66, #68 ) ) ;
#89 = AXIS2_PLACEMENT_3D ( 'NONE', #219, #159, #102 ) ;
#90 = DATE_AND_TIME ( #195, #35 ) ;
#91 = ORIENTED_EDGE ( 'NONE', *, *, #202, .T. ) ;
#92 = ADVANCED_FACE ( 'NONE', ( #177 ), #57, .T. ) ;
#93 = DIRECTION ( 'NONE',  ( -0.000000000000000000, -0.000000000000000000, -1.000000000000000000 ) ) ;
#94 = EDGE_CURVE ( 'NONE', #239, #48, #135, .T. ) ;
#95 = CARTESIAN_POINT ( 'NONE',  ( -4.000000000000000000, 0.000000000000000000, 3.000000000000000000 ) ) ;
#96 = PERSON_AND_ORGANIZATION_ROLE ( 'classification_officer' ) ;
#97 = AXIS2_PLACEMENT_3D ( 'NONE', #136, #174, #212 ) ;
#98 = APPROVAL_PERSON_ORGANIZATION ( #63, #122, #69 ) ;
#99 = DIRECTION ( 'NONE',  ( 0.000000000000000000, 0.000000000000000000, 1.000000000000000000 ) ) ;
#100 = MANIFOLD_SOLID_BREP ( 'Pøidat vysunutím3', #144 ) ;
#101 = PLANE ( 'NONE',  #166 ) ;
#102 = DIRECTION ( 'NONE',  ( 1.000000000000000000, 0.000000000000000000, 0.000000000000000000 ) ) ;
#103 = CARTESIAN_POINT ( 'NONE',  ( 0.000000000000000000, 0.000000000000000000, 3.000000000000000000 ) ) ;
#104 = AXIS2_PLACEMENT_3D ( 'NONE', #30, #74, #6 ) ;
#105 = AXIS2_PLACEMENT_3D ( 'NONE', #14, #253, #161 ) ;
#106 = CARTESIAN_POINT ( 'NONE',  ( 0.000000000000000000, 0.000000000000000000, 3.000000000000000000 ) ) ;
#107 = DIRECTION ( 'NONE',  ( -1.000000000000000000, 0.000000000000000000, 0.000000000000000000 ) ) ;
#108 = DATE_TIME_ROLE ( 'creation_date' ) ;
#109 = LOCAL_TIME ( 13, 34, 47.00000000000000000, #129 ) ;
#110 = ADVANCED_BREP_SHAPE_REPRESENTATION ( '53c7', ( #100, #181 ), #197 ) ;
#111 = VERTEX_POINT ( 'NONE', #28 ) ;
#112 = ORIENTED_EDGE ( 'NONE', *, *, #252, .F. ) ;
#113 = EDGE_CURVE ( 'NONE', #239, #164, #34, .T. ) ;
#114 = ORIENTED_EDGE ( 'NONE', *, *, #113, .T. ) ;
#115 = EDGE_LOOP ( 'NONE', ( #114, #146 ) ) ;
#116 = APPROVAL ( #193, 'NEURÈENÝ' ) ;
#117 = PERSON_AND_ORGANIZATION ( #189, #214 ) ;
#118 = PRODUCT ( '53c7', '53c7', '', ( #167 ) ) ;
#119 = APPROVAL_ROLE ( '' ) ;
#120 = PLANE ( 'NONE',  #47 ) ;
#121 = APPROVAL ( #65, 'NEURÈENÝ' ) ;
#122 = APPROVAL ( #44, 'NEURÈENÝ' ) ;
#123 = CC_DESIGN_SECURITY_CLASSIFICATION ( #172, ( #228 ) ) ;
#124 = DIRECTION ( 'NONE',  ( -0.000000000000000000, -0.000000000000000000, -1.000000000000000000 ) ) ;
#125 = FACE_OUTER_BOUND ( 'NONE', #192, .T. ) ;
#126 = DATE_AND_TIME ( #236, #240 ) ;
#127 = PERSON_AND_ORGANIZATION_ROLE ( 'creator' ) ;
#128 = EDGE_LOOP ( 'NONE', ( #70, #243 ) ) ;
#129 = COORDINATED_UNIVERSAL_TIME_OFFSET ( 1, 0, .AHEAD. ) ;
#130 = PRODUCT_DEFINITION_SHAPE ( 'NONE', 'NONE',  #137 ) ;
#131 = COORDINATED_UNIVERSAL_TIME_OFFSET ( 1, 0, .AHEAD. ) ;
#132 = EDGE_LOOP ( 'NONE', ( #20, #21, #91, #188 ) ) ;
#133 = ORIENTED_EDGE ( 'NONE', *, *, #213, .F. ) ;
#134 = DIRECTION ( 'NONE',  ( -1.000000000000000000, 0.000000000000000000, 0.000000000000000000 ) ) ;
#135 = LINE ( 'NONE', #227, #2 ) ;
#136 = CARTESIAN_POINT ( 'NONE',  ( 0.000000000000000000, 0.000000000000000000, 800.0000000000000000 ) ) ;
#137 = PRODUCT_DEFINITION ( 'NEZNÁMÝ', '', #228, #187 ) ;
#138 = CARTESIAN_POINT ( 'NONE',  ( -4.000000000000000000, 0.000000000000000000, 3.000000000000000000 ) ) ;
#139 = EDGE_CURVE ( 'NONE', #164, #5, #196, .T. ) ;
#140 = APPLICATION_CONTEXT ( 'configuration controlled 3d designs of mechanical parts and assemblies' ) ;
#141 = DIRECTION ( 'NONE',  ( -0.000000000000000000, -0.000000000000000000, -1.000000000000000000 ) ) ;
#142 = DIRECTION ( 'NONE',  ( -0.000000000000000000, -0.000000000000000000, -1.000000000000000000 ) ) ;
#143 = CALENDAR_DATE ( 2023, 12, 2 ) ;
#144 = CLOSED_SHELL ( 'NONE', ( #19, #184, #43, #4, #77, #237, #92 ) ) ;
#145 = APPROVAL_PERSON_ORGANIZATION ( #117, #116, #119 ) ;
#146 = ORIENTED_EDGE ( 'NONE', *, *, #252, .T. ) ;
#147 = COORDINATED_UNIVERSAL_TIME_OFFSET ( 1, 0, .AHEAD. ) ;
#148 = ORIENTED_EDGE ( 'NONE', *, *, #139, .F. ) ;
#149 = PERSON_AND_ORGANIZATION ( #189, #214 ) ;
#150 = ORIENTED_EDGE ( 'NONE', *, *, #209, .F. ) ;
#151 = APPROVAL_PERSON_ORGANIZATION ( #84, #121, #1 ) ;
#152 = APPROVAL_DATE_TIME ( #90, #116 ) ;
#153 = CYLINDRICAL_SURFACE ( 'NONE', #104, 4.000000000000000000 ) ;
#154 = CALENDAR_DATE ( 2023, 12, 2 ) ;
#155 = VECTOR ( 'NONE', #62, 1000.000000000000000 ) ;
#156 = DIRECTION ( 'NONE',  ( 1.000000000000000000, 0.000000000000000000, -0.000000000000000000 ) ) ;
#157 = CARTESIAN_POINT ( 'NONE',  ( -2.100000000000000089, 0.000000000000000000, 3.000000000000000000 ) ) ;
#158 = CIRCLE ( 'NONE', #39, 2.100000000000000089 ) ;
#159 = DIRECTION ( 'NONE',  ( 0.000000000000000000, 0.000000000000000000, 1.000000000000000000 ) ) ;
#160 = CC_DESIGN_PERSON_AND_ORGANIZATION_ASSIGNMENT ( #18, #205, ( #228 ) ) ;
#161 = DIRECTION ( 'NONE',  ( 1.000000000000000000, 0.000000000000000000, 0.000000000000000000 ) ) ;
#162 = DATE_AND_TIME ( #17, #109 ) ;
#163 = DIRECTION ( 'NONE',  ( 0.000000000000000000, 0.000000000000000000, 1.000000000000000000 ) ) ;
#164 = VERTEX_POINT ( 'NONE', #201 ) ;
#165 = PERSON_AND_ORGANIZATION_ROLE ( 'design_owner' ) ;
#166 = AXIS2_PLACEMENT_3D ( 'NONE', #52, #173, #156 ) ;
#167 = MECHANICAL_CONTEXT ( 'NONE', #23, 'mechanical' ) ;
#168 = ORIENTED_EDGE ( 'NONE', *, *, #113, .F. ) ;
#169 = ORIENTED_EDGE ( 'NONE', *, *, #139, .T. ) ;
#170 = AXIS2_PLACEMENT_3D ( 'NONE', #106, #9, #203 ) ;
#171 = EDGE_CURVE ( 'NONE', #45, #51, #15, .T. ) ;
#172 = SECURITY_CLASSIFICATION ( '', '', #186 ) ;
#173 = DIRECTION ( 'NONE',  ( 0.000000000000000000, 0.000000000000000000, 1.000000000000000000 ) ) ;
#174 = DIRECTION ( 'NONE',  ( 0.000000000000000000, 0.000000000000000000, 1.000000000000000000 ) ) ;
#175 = EDGE_CURVE ( 'NONE', #51, #190, #251, .T. ) ;
#176 = CIRCLE ( 'NONE', #255, 4.000000000000000000 ) ;
#177 = FACE_OUTER_BOUND ( 'NONE', #115, .T. ) ;
#178 =( LENGTH_UNIT ( ) NAMED_UNIT ( * ) SI_UNIT ( .MILLI., .METRE. ) );
#179 = CARTESIAN_POINT ( 'NONE',  ( -2.100000000000000089, 0.000000000000000000, 800.0000000000000000 ) ) ;
#180 = CARTESIAN_POINT ( 'NONE',  ( 0.000000000000000000, 0.000000000000000000, 3.000000000000000000 ) ) ;
#181 = AXIS2_PLACEMENT_3D ( 'NONE', #75, #99, #37 ) ;
#182 = PERSON_AND_ORGANIZATION ( #189, #214 ) ;
#183 = ORIENTED_EDGE ( 'NONE', *, *, #202, .F. ) ;
#184 = ADVANCED_FACE ( 'NONE', ( #79 ), #200, .T. ) ;
#185 = ORIENTED_EDGE ( 'NONE', *, *, #94, .T. ) ;
#186 = SECURITY_CLASSIFICATION_LEVEL ( 'unclassified' ) ;
#187 = DESIGN_CONTEXT ( 'detailed design', #140, 'design' ) ;
#188 = ORIENTED_EDGE ( 'NONE', *, *, #213, .T. ) ;
#189 = PERSON ( 'NEURÈENÝ', 'NEURÈENÝ', 'NEURÈENÝ', ('NEURÈENÝ'), ('NEURÈENÝ'), ('NEURÈENÝ') ) ;
#190 = VERTEX_POINT ( 'NONE', #78 ) ;
#191 = EDGE_CURVE ( 'NONE', #48, #5, #158, .T. ) ;
#192 = EDGE_LOOP ( 'NONE', ( #148, #168, #185, #22 ) ) ;
#193 = APPROVAL_STATUS ( 'not_yet_approved' ) ;
#194 = CC_DESIGN_PERSON_AND_ORGANIZATION_ASSIGNMENT ( #222, #127, ( #228 ) ) ;
#195 = CALENDAR_DATE ( 2023, 12, 2 ) ;
#196 = LINE ( 'NONE', #198, #231 ) ;
#197 =( GEOMETRIC_REPRESENTATION_CONTEXT ( 3 ) GLOBAL_UNCERTAINTY_ASSIGNED_CONTEXT ( ( #60 ) ) GLOBAL_UNIT_ASSIGNED_CONTEXT ( ( #178, #11, #86 ) ) REPRESENTATION_CONTEXT ( 'NONE', 'WORKASPACE' ) );
#198 = CARTESIAN_POINT ( 'NONE',  ( 2.100000000000000089, 2.571758278209441957E-16, 800.0000000000000000 ) ) ;
#199 = DIRECTION ( 'NONE',  ( 1.000000000000000000, 0.000000000000000000, 0.000000000000000000 ) ) ;
#200 = CYLINDRICAL_SURFACE ( 'NONE', #204, 4.000000000000000000 ) ;
#201 = CARTESIAN_POINT ( 'NONE',  ( 2.100000000000000089, 2.571758278209441957E-16, 800.0000000000000000 ) ) ;
#202 = EDGE_CURVE ( 'NONE', #45, #111, #232, .T. ) ;
#203 = DIRECTION ( 'NONE',  ( 1.000000000000000000, 0.000000000000000000, 0.000000000000000000 ) ) ;
#204 = AXIS2_PLACEMENT_3D ( 'NONE', #103, #142, #107 ) ;
#205 = PERSON_AND_ORGANIZATION_ROLE ( 'design_supplier' ) ;
#206 = EDGE_LOOP ( 'NONE', ( #150, #238, #246, #183 ) ) ;
#207 = EDGE_CURVE ( 'NONE', #5, #48, #3, .T. ) ;
#208 = ORIENTED_EDGE ( 'NONE', *, *, #209, .T. ) ;
#209 = EDGE_CURVE ( 'NONE', #51, #45, #12, .T. ) ;
#210 = PRODUCT_RELATED_PRODUCT_CATEGORY ( 'detail', '', ( #118 ) ) ;
#211 = DIRECTION ( 'NONE',  ( 0.000000000000000000, 0.000000000000000000, 1.000000000000000000 ) ) ;
#212 = DIRECTION ( 'NONE',  ( 1.000000000000000000, 0.000000000000000000, -0.000000000000000000 ) ) ;
#213 = EDGE_CURVE ( 'NONE', #111, #190, #176, .T. ) ;
#214 = ORGANIZATION ( 'NEURÈENÝ', 'NEURÈENÝ', '' ) ;
#215 = CARTESIAN_POINT ( 'NONE',  ( 0.000000000000000000, 0.000000000000000000, 0.000000000000000000 ) ) ;
#216 = DIRECTION ( 'NONE',  ( 1.000000000000000000, 0.000000000000000000, 0.000000000000000000 ) ) ;
#217 = EDGE_CURVE ( 'NONE', #190, #111, #61, .T. ) ;
#218 = DIRECTION ( 'NONE',  ( 0.000000000000000000, 0.000000000000000000, 1.000000000000000000 ) ) ;
#219 = CARTESIAN_POINT ( 'NONE',  ( 0.000000000000000000, 0.000000000000000000, 800.0000000000000000 ) ) ;
#220 = DATE_AND_TIME ( #143, #16 ) ;
#221 = EDGE_LOOP ( 'NONE', ( #133, #42 ) ) ;
#222 = PERSON_AND_ORGANIZATION ( #189, #214 ) ;
#223 = EDGE_LOOP ( 'NONE', ( #225, #208 ) ) ;
#224 = AXIS2_PLACEMENT_3D ( 'NONE', #64, #10, #32 ) ;
#225 = ORIENTED_EDGE ( 'NONE', *, *, #171, .T. ) ;
#226 = CYLINDRICAL_SURFACE ( 'NONE', #67, 2.100000000000000089 ) ;
#227 = CARTESIAN_POINT ( 'NONE',  ( -2.100000000000000089, 0.000000000000000000, 800.0000000000000000 ) ) ;
#228 = PRODUCT_DEFINITION_FORMATION_WITH_SPECIFIED_SOURCE ( 'LIBOVOLNÝ', '', #118, .NOT_KNOWN. ) ;
#229 = CARTESIAN_POINT ( 'NONE',  ( 2.100000000000000089, 2.571758278209441957E-16, 3.000000000000000000 ) ) ;
#230 = FACE_OUTER_BOUND ( 'NONE', #132, .T. ) ;
#231 = VECTOR ( 'NONE', #124, 1000.000000000000000 ) ;
#232 = LINE ( 'NONE', #138, #25 ) ;
#233 = CC_DESIGN_APPROVAL ( #116, ( #172 ) ) ;
#234 = APPROVAL_DATE_TIME ( #162, #122 ) ;
#235 = DIRECTION ( 'NONE',  ( 1.000000000000000000, 0.000000000000000000, 0.000000000000000000 ) ) ;
#236 = CALENDAR_DATE ( 2023, 12, 2 ) ;
#237 = ADVANCED_FACE ( 'NONE', ( #125 ), #80, .T. ) ;
#238 = ORIENTED_EDGE ( 'NONE', *, *, #175, .T. ) ;
#239 = VERTEX_POINT ( 'NONE', #179 ) ;
#240 = LOCAL_TIME ( 13, 34, 47.00000000000000000, #147 ) ;
#241 = APPLICATION_PROTOCOL_DEFINITION ( 'international standard', 'config_control_design', 1994, #140 ) ;
#242 = APPLICATION_PROTOCOL_DEFINITION ( 'international standard', 'config_control_design', 1994, #23 ) ;
#243 = ORIENTED_EDGE ( 'NONE', *, *, #207, .F. ) ;
#244 = CC_DESIGN_DATE_AND_TIME_ASSIGNMENT ( #126, #108, ( #137 ) ) ;
#245 = COORDINATED_UNIVERSAL_TIME_OFFSET ( 1, 0, .AHEAD. ) ;
#246 = ORIENTED_EDGE ( 'NONE', *, *, #217, .T. ) ;
#247 = DIRECTION ( 'NONE',  ( 1.000000000000000000, 0.000000000000000000, -0.000000000000000000 ) ) ;
#248 = CARTESIAN_POINT ( 'NONE',  ( 0.000000000000000000, 0.000000000000000000, 800.0000000000000000 ) ) ;
#249 = DIRECTION ( 'NONE',  ( 1.000000000000000000, 0.000000000000000000, 0.000000000000000000 ) ) ;
#250 = FACE_OUTER_BOUND ( 'NONE', #223, .T. ) ;
#251 = LINE ( 'NONE', #13, #155 ) ;
#252 = EDGE_CURVE ( 'NONE', #164, #239, #49, .T. ) ;
#253 = DIRECTION ( 'NONE',  ( 0.000000000000000000, 0.000000000000000000, 1.000000000000000000 ) ) ;
#254 = DIRECTION ( 'NONE',  ( 0.000000000000000000, 0.000000000000000000, 1.000000000000000000 ) ) ;
#255 = AXIS2_PLACEMENT_3D ( 'NONE', #215, #218, #33 ) ;
ENDSEC;
END-ISO-10303-21;
