ISO-10303-21;
HEADER;
FILE_DESCRIPTION (( 'STEP AP203' ),
    '1' );
FILE_NAME ('cba2.STEP',
    '2023-02-12T10:26:42',
    ( '' ),
    ( '' ),
    'SwSTEP 2.0',
    'SolidWorks 2019',
    '' );
FILE_SCHEMA (( 'CONFIG_CONTROL_DESIGN' ));
ENDSEC;

DATA;
#1 = EDGE_LOOP ( 'NONE', ( #178, #222, #104, #197 ) ) ;
#2 = VERTEX_POINT ( 'NONE', #105 ) ;
#3 = EDGE_CURVE ( 'NONE', #121, #88, #68, .T. ) ;
#4 = CALENDAR_DATE ( 2023, 12, 2 ) ;
#5 = SHAPE_DEFINITION_REPRESENTATION ( #12, #99 ) ;
#6 = FACE_OUTER_BOUND ( 'NONE', #21, .T. ) ;
#7 = EDGE_CURVE ( 'NONE', #125, #106, #168, .T. ) ;
#8 = APPROVAL_STATUS ( 'not_yet_approved' ) ;
#9 = DIRECTION ( 'NONE',  ( -1.000000000000000000, 0.000000000000000000, 0.000000000000000000 ) ) ;
#10 = APPROVAL_ROLE ( '' ) ;
#11 = CIRCLE ( 'NONE', #117, 20.00000000000000000 ) ;
#12 = PRODUCT_DEFINITION_SHAPE ( 'NONE', 'NONE',  #17 ) ;
#13 = FACE_OUTER_BOUND ( 'NONE', #179, .T. ) ;
#14 = DIRECTION ( 'NONE',  ( -1.000000000000000000, 0.000000000000000000, 0.000000000000000000 ) ) ;
#15 = FACE_OUTER_BOUND ( 'NONE', #180, .T. ) ;
#16 = DIRECTION ( 'NONE',  ( 1.000000000000000000, 0.000000000000000000, 0.000000000000000000 ) ) ;
#17 = PRODUCT_DEFINITION ( 'NEZNÁMÝ', '', #20, #63 ) ;
#18 = CIRCLE ( 'NONE', #59, 20.00000000000000000 ) ;
#19 = LOCAL_TIME ( 11, 26, 42.00000000000000000, #245 ) ;
#20 = PRODUCT_DEFINITION_FORMATION_WITH_SPECIFIED_SOURCE ( 'LIBOVOLNÝ', '', #229, .NOT_KNOWN. ) ;
#21 = EDGE_LOOP ( 'NONE', ( #122, #161 ) ) ;
#22 = EDGE_LOOP ( 'NONE', ( #145, #218 ) ) ;
#23 = EDGE_LOOP ( 'NONE', ( #164, #147 ) ) ;
#24 = CC_DESIGN_PERSON_AND_ORGANIZATION_ASSIGNMENT ( #203, #26, ( #52 ) ) ;
#25 = ORIENTED_EDGE ( 'NONE', *, *, #223, .F. ) ;
#26 = PERSON_AND_ORGANIZATION_ROLE ( 'classification_officer' ) ;
#27 = ORGANIZATION ( 'NEURÈENÝ', 'NEURÈENÝ', '' ) ;
#28 = COORDINATED_UNIVERSAL_TIME_OFFSET ( 1, 0, .AHEAD. ) ;
#29 = DIRECTION ( 'NONE',  ( 0.000000000000000000, 0.000000000000000000, 1.000000000000000000 ) ) ;
#30 = CARTESIAN_POINT ( 'NONE',  ( 0.000000000000000000, 0.000000000000000000, 0.000000000000000000 ) ) ;
#31 = DIRECTION ( 'NONE',  ( -1.000000000000000000, 0.000000000000000000, 0.000000000000000000 ) ) ;
#32 = PERSON_AND_ORGANIZATION ( #80, #27 ) ;
#33 = DIRECTION ( 'NONE',  ( 0.000000000000000000, 0.000000000000000000, 1.000000000000000000 ) ) ;
#34 = PERSON_AND_ORGANIZATION ( #80, #27 ) ;
#35 = APPLICATION_CONTEXT ( 'configuration controlled 3d designs of mechanical parts and assemblies' ) ;
#36 = AXIS2_PLACEMENT_3D ( 'NONE', #210, #37, #115 ) ;
#37 = DIRECTION ( 'NONE',  ( 0.000000000000000000, 0.000000000000000000, 1.000000000000000000 ) ) ;
#38 = CARTESIAN_POINT ( 'NONE',  ( 0.000000000000000000, 0.000000000000000000, 200.0000000000000000 ) ) ;
#39 = ADVANCED_FACE ( 'NONE', ( #172 ), #81, .T. ) ;
#40 = CC_DESIGN_APPROVAL ( #217, ( #20 ) ) ;
#41 = ADVANCED_FACE ( 'NONE', ( #6 ), #250, .T. ) ;
#42 = AXIS2_PLACEMENT_3D ( 'NONE', #30, #243, #240 ) ;
#43 = MANIFOLD_SOLID_BREP ( 'Pøidat vysunutím3', #144 ) ;
#44 = ORIENTED_EDGE ( 'NONE', *, *, #7, .F. ) ;
#45 = ADVANCED_FACE ( 'NONE', ( #13 ), #50, .T. ) ;
#46 = ORIENTED_EDGE ( 'NONE', *, *, #223, .T. ) ;
#47 = CALENDAR_DATE ( 2023, 12, 2 ) ;
#48 = ORIENTED_EDGE ( 'NONE', *, *, #60, .T. ) ;
#49 = SECURITY_CLASSIFICATION_LEVEL ( 'unclassified' ) ;
#50 = CYLINDRICAL_SURFACE ( 'NONE', #198, 16.00000000000000000 ) ;
#51 = ADVANCED_FACE ( 'NONE', ( #56 ), #95, .F. ) ;
#52 = SECURITY_CLASSIFICATION ( '', '', #49 ) ;
#53 = DATE_AND_TIME ( #188, #101 ) ;
#54 = CARTESIAN_POINT ( 'NONE',  ( 20.00000000000000000, 2.449293598294706513E-15, 10.00000000000000000 ) ) ;
#55 = APPROVAL_DATE_TIME ( #96, #217 ) ;
#56 = FACE_OUTER_BOUND ( 'NONE', #23, .T. ) ;
#57 = DATE_TIME_ROLE ( 'classification_date' ) ;
#58 = LINE ( 'NONE', #54, #233 ) ;
#59 = AXIS2_PLACEMENT_3D ( 'NONE', #190, #154, #244 ) ;
#60 = EDGE_CURVE ( 'NONE', #66, #235, #58, .T. ) ;
#61 = CARTESIAN_POINT ( 'NONE',  ( 0.000000000000000000, 0.000000000000000000, 10.00000000000000000 ) ) ;
#62 = CARTESIAN_POINT ( 'NONE',  ( 0.000000000000000000, 0.000000000000000000, 0.000000000000000000 ) ) ;
#63 = DESIGN_CONTEXT ( 'detailed design', #35, 'design' ) ;
#64 = DIRECTION ( 'NONE',  ( -0.000000000000000000, -0.000000000000000000, -1.000000000000000000 ) ) ;
#65 = EDGE_CURVE ( 'NONE', #66, #121, #209, .T. ) ;
#66 = VERTEX_POINT ( 'NONE', #73 ) ;
#67 = EDGE_LOOP ( 'NONE', ( #69, #143 ) ) ;
#68 = LINE ( 'NONE', #224, #215 ) ;
#69 = ORIENTED_EDGE ( 'NONE', *, *, #87, .T. ) ;
#70 = CIRCLE ( 'NONE', #36, 16.00000000000000000 ) ;
#71 = PERSON_AND_ORGANIZATION_ROLE ( 'design_owner' ) ;
#72 = DATE_TIME_ROLE ( 'creation_date' ) ;
#73 = CARTESIAN_POINT ( 'NONE',  ( 20.00000000000000000, 2.449293598294706513E-15, 10.00000000000000000 ) ) ;
#74 = DIRECTION ( 'NONE',  ( -0.000000000000000000, -0.000000000000000000, -1.000000000000000000 ) ) ;
#75 = LOCAL_TIME ( 11, 26, 42.00000000000000000, #28 ) ;
#76 = MECHANICAL_CONTEXT ( 'NONE', #93, 'mechanical' ) ;
#77 = DIRECTION ( 'NONE',  ( 0.000000000000000000, 0.000000000000000000, 1.000000000000000000 ) ) ;
#78 = COORDINATED_UNIVERSAL_TIME_OFFSET ( 1, 0, .AHEAD. ) ;
#79 = DIRECTION ( 'NONE',  ( 1.000000000000000000, 0.000000000000000000, 0.000000000000000000 ) ) ;
#80 = PERSON ( 'NEURÈENÝ', 'NEURÈENÝ', 'NEURÈENÝ', ('NEURÈENÝ'), ('NEURÈENÝ'), ('NEURÈENÝ') ) ;
#81 = CYLINDRICAL_SURFACE ( 'NONE', #169, 20.00000000000000000 ) ;
#82 =( NAMED_UNIT ( * ) SI_UNIT ( $, .STERADIAN. ) SOLID_ANGLE_UNIT ( ) );
#83 =( NAMED_UNIT ( * ) PLANE_ANGLE_UNIT ( ) SI_UNIT ( $, .RADIAN. ) );
#84 = CARTESIAN_POINT ( 'NONE',  ( 16.00000000000000000, 1.959434878635765131E-15, 200.0000000000000000 ) ) ;
#85 = AXIS2_PLACEMENT_3D ( 'NONE', #226, #77, #189 ) ;
#86 = AXIS2_PLACEMENT_3D ( 'NONE', #166, #29, #249 ) ;
#87 = EDGE_CURVE ( 'NONE', #121, #66, #18, .T. ) ;
#88 = VERTEX_POINT ( 'NONE', #111 ) ;
#89 = COORDINATED_UNIVERSAL_TIME_OFFSET ( 1, 0, .AHEAD. ) ;
#90 = PLANE ( 'NONE',  #86 ) ;
#91 = PERSON_AND_ORGANIZATION_ROLE ( 'creator' ) ;
#92 = DIRECTION ( 'NONE',  ( -0.000000000000000000, -0.000000000000000000, -1.000000000000000000 ) ) ;
#93 = APPLICATION_CONTEXT ( 'configuration controlled 3d designs of mechanical parts and assemblies' ) ;
#94 = AXIS2_PLACEMENT_3D ( 'NONE', #170, #113, #130 ) ;
#95 = PLANE ( 'NONE',  #94 ) ;
#96 = DATE_AND_TIME ( #148, #75 ) ;
#97 = CARTESIAN_POINT ( 'NONE',  ( -16.00000000000000000, 0.000000000000000000, 200.0000000000000000 ) ) ;
#98 = FACE_OUTER_BOUND ( 'NONE', #1, .T. ) ;
#99 = ADVANCED_BREP_SHAPE_REPRESENTATION ( 'cba2', ( #43, #42 ), #135 ) ;
#100 = CC_DESIGN_PERSON_AND_ORGANIZATION_ASSIGNMENT ( #205, #110, ( #20 ) ) ;
#101 = LOCAL_TIME ( 11, 26, 42.00000000000000000, #78 ) ;
#102 = DIRECTION ( 'NONE',  ( 1.000000000000000000, 0.000000000000000000, 0.000000000000000000 ) ) ;
#103 = CYLINDRICAL_SURFACE ( 'NONE', #219, 16.00000000000000000 ) ;
#104 = ORIENTED_EDGE ( 'NONE', *, *, #3, .T. ) ;
#105 = CARTESIAN_POINT ( 'NONE',  ( 16.00000000000000000, 1.959434878635765131E-15, 10.00000000000000000 ) ) ;
#106 = VERTEX_POINT ( 'NONE', #127 ) ;
#107 = DATE_AND_TIME ( #153, #175 ) ;
#108 = EDGE_CURVE ( 'NONE', #118, #125, #155, .T. ) ;
#109 = CARTESIAN_POINT ( 'NONE',  ( 0.000000000000000000, 0.000000000000000000, 10.00000000000000000 ) ) ;
#110 = PERSON_AND_ORGANIZATION_ROLE ( 'design_supplier' ) ;
#111 = CARTESIAN_POINT ( 'NONE',  ( -20.00000000000000000, 0.000000000000000000, 0.000000000000000000 ) ) ;
#112 = PERSON_AND_ORGANIZATION_ROLE ( 'creator' ) ;
#113 = DIRECTION ( 'NONE',  ( 0.000000000000000000, 0.000000000000000000, 1.000000000000000000 ) ) ;
#114 = APPROVAL_DATE_TIME ( #131, #254 ) ;
#115 = DIRECTION ( 'NONE',  ( 1.000000000000000000, 0.000000000000000000, 0.000000000000000000 ) ) ;
#116 = DIRECTION ( 'NONE',  ( -1.000000000000000000, 0.000000000000000000, 0.000000000000000000 ) ) ;
#117 = AXIS2_PLACEMENT_3D ( 'NONE', #174, #159, #16 ) ;
#118 = VERTEX_POINT ( 'NONE', #204 ) ;
#119 = CC_DESIGN_DATE_AND_TIME_ASSIGNMENT ( #53, #72, ( #17 ) ) ;
#120 = ORIENTED_EDGE ( 'NONE', *, *, #248, .T. ) ;
#121 = VERTEX_POINT ( 'NONE', #149 ) ;
#122 = ORIENTED_EDGE ( 'NONE', *, *, #140, .T. ) ;
#123 = DATE_AND_TIME ( #47, #134 ) ;
#124 = ADVANCED_FACE ( 'NONE', ( #98 ), #133, .T. ) ;
#125 = VERTEX_POINT ( 'NONE', #191 ) ;
#126 = APPROVAL_ROLE ( '' ) ;
#127 = CARTESIAN_POINT ( 'NONE',  ( -16.00000000000000000, 0.000000000000000000, 10.00000000000000000 ) ) ;
#128 = APPROVAL_STATUS ( 'not_yet_approved' ) ;
#129 = DIRECTION ( 'NONE',  ( -0.000000000000000000, -0.000000000000000000, -1.000000000000000000 ) ) ;
#130 = DIRECTION ( 'NONE',  ( 1.000000000000000000, 0.000000000000000000, -0.000000000000000000 ) ) ;
#131 = DATE_AND_TIME ( #4, #19 ) ;
#132 = AXIS2_PLACEMENT_3D ( 'NONE', #246, #212, #208 ) ;
#133 = CYLINDRICAL_SURFACE ( 'NONE', #255, 20.00000000000000000 ) ;
#134 = LOCAL_TIME ( 11, 26, 42.00000000000000000, #181 ) ;
#135 =( GEOMETRIC_REPRESENTATION_CONTEXT ( 3 ) GLOBAL_UNCERTAINTY_ASSIGNED_CONTEXT ( ( #163 ) ) GLOBAL_UNIT_ASSIGNED_CONTEXT ( ( #251, #83, #82 ) ) REPRESENTATION_CONTEXT ( 'NONE', 'WORKASPACE' ) );
#136 = DIRECTION ( 'NONE',  ( -0.000000000000000000, -0.000000000000000000, -1.000000000000000000 ) ) ;
#137 = APPLICATION_PROTOCOL_DEFINITION ( 'international standard', 'config_control_design', 1994, #93 ) ;
#138 = VECTOR ( 'NONE', #92, 1000.000000000000000 ) ;
#139 = APPROVAL_PERSON_ORGANIZATION ( #221, #158, #10 ) ;
#140 = EDGE_CURVE ( 'NONE', #125, #118, #162, .T. ) ;
#141 = AXIS2_PLACEMENT_3D ( 'NONE', #109, #150, #79 ) ;
#142 = CC_DESIGN_DATE_AND_TIME_ASSIGNMENT ( #107, #57, ( #52 ) ) ;
#143 = ORIENTED_EDGE ( 'NONE', *, *, #65, .T. ) ;
#144 = CLOSED_SHELL ( 'NONE', ( #45, #39, #124, #173, #51, #242, #41 ) ) ;
#145 = ORIENTED_EDGE ( 'NONE', *, *, #195, .F. ) ;
#146 = APPLICATION_PROTOCOL_DEFINITION ( 'international standard', 'config_control_design', 1994, #35 ) ;
#147 = ORIENTED_EDGE ( 'NONE', *, *, #248, .F. ) ;
#148 = CALENDAR_DATE ( 2023, 12, 2 ) ;
#149 = CARTESIAN_POINT ( 'NONE',  ( -20.00000000000000000, 0.000000000000000000, 10.00000000000000000 ) ) ;
#150 = DIRECTION ( 'NONE',  ( 0.000000000000000000, 0.000000000000000000, 1.000000000000000000 ) ) ;
#151 = PRODUCT_RELATED_PRODUCT_CATEGORY ( 'detail', '', ( #229 ) ) ;
#152 = FACE_OUTER_BOUND ( 'NONE', #67, .T. ) ;
#153 = CALENDAR_DATE ( 2023, 12, 2 ) ;
#154 = DIRECTION ( 'NONE',  ( 0.000000000000000000, 0.000000000000000000, 1.000000000000000000 ) ) ;
#155 = CIRCLE ( 'NONE', #194, 16.00000000000000000 ) ;
#156 = CARTESIAN_POINT ( 'NONE',  ( 0.000000000000000000, 0.000000000000000000, 10.00000000000000000 ) ) ;
#157 = AXIS2_PLACEMENT_3D ( 'NONE', #62, #193, #102 ) ;
#158 = APPROVAL ( #225, 'NEURÈENÝ' ) ;
#159 = DIRECTION ( 'NONE',  ( 0.000000000000000000, 0.000000000000000000, 1.000000000000000000 ) ) ;
#160 = CIRCLE ( 'NONE', #157, 20.00000000000000000 ) ;
#161 = ORIENTED_EDGE ( 'NONE', *, *, #108, .T. ) ;
#162 = CIRCLE ( 'NONE', #85, 16.00000000000000000 ) ;
#163 = UNCERTAINTY_MEASURE_WITH_UNIT (LENGTH_MEASURE( 1.000000000000000082E-05 ), #251, 'distance_accuracy_value', 'NONE');
#164 = ORIENTED_EDGE ( 'NONE', *, *, #232, .F. ) ;
#165 = ORIENTED_EDGE ( 'NONE', *, *, #3, .F. ) ;
#166 = CARTESIAN_POINT ( 'NONE',  ( 0.000000000000000000, 0.000000000000000000, 10.00000000000000000 ) ) ;
#167 = PERSON_AND_ORGANIZATION ( #80, #27 ) ;
#168 = LINE ( 'NONE', #97, #138 ) ;
#169 = AXIS2_PLACEMENT_3D ( 'NONE', #156, #185, #9 ) ;
#170 = CARTESIAN_POINT ( 'NONE',  ( 0.000000000000000000, 0.000000000000000000, 0.000000000000000000 ) ) ;
#171 = DIRECTION ( 'NONE',  ( 0.000000000000000000, 0.000000000000000000, 1.000000000000000000 ) ) ;
#172 = FACE_OUTER_BOUND ( 'NONE', #241, .T. ) ;
#173 = ADVANCED_FACE ( 'NONE', ( #228, #152 ), #90, .T. ) ;
#174 = CARTESIAN_POINT ( 'NONE',  ( 0.000000000000000000, 0.000000000000000000, 0.000000000000000000 ) ) ;
#175 = LOCAL_TIME ( 11, 26, 42.00000000000000000, #89 ) ;
#176 = DIRECTION ( 'NONE',  ( -0.000000000000000000, -0.000000000000000000, -1.000000000000000000 ) ) ;
#177 = CC_DESIGN_SECURITY_CLASSIFICATION ( #52, ( #20 ) ) ;
#178 = ORIENTED_EDGE ( 'NONE', *, *, #60, .F. ) ;
#179 = EDGE_LOOP ( 'NONE', ( #216, #46, #201, #44 ) ) ;
#180 = EDGE_LOOP ( 'NONE', ( #25, #239, #196, #238 ) ) ;
#181 = COORDINATED_UNIVERSAL_TIME_OFFSET ( 1, 0, .AHEAD. ) ;
#182 = APPROVAL_PERSON_ORGANIZATION ( #167, #217, #126 ) ;
#183 = EDGE_CURVE ( 'NONE', #2, #106, #236, .T. ) ;
#184 = APPROVAL_ROLE ( '' ) ;
#185 = DIRECTION ( 'NONE',  ( -0.000000000000000000, -0.000000000000000000, -1.000000000000000000 ) ) ;
#186 = PERSON_AND_ORGANIZATION ( #80, #27 ) ;
#187 = DIRECTION ( 'NONE',  ( 1.000000000000000000, 0.000000000000000000, -0.000000000000000000 ) ) ;
#188 = CALENDAR_DATE ( 2023, 12, 2 ) ;
#189 = DIRECTION ( 'NONE',  ( 1.000000000000000000, 0.000000000000000000, 0.000000000000000000 ) ) ;
#190 = CARTESIAN_POINT ( 'NONE',  ( 0.000000000000000000, 0.000000000000000000, 10.00000000000000000 ) ) ;
#191 = CARTESIAN_POINT ( 'NONE',  ( -16.00000000000000000, 0.000000000000000000, 200.0000000000000000 ) ) ;
#192 = CC_DESIGN_PERSON_AND_ORGANIZATION_ASSIGNMENT ( #32, #112, ( #17 ) ) ;
#193 = DIRECTION ( 'NONE',  ( 0.000000000000000000, 0.000000000000000000, 1.000000000000000000 ) ) ;
#194 = AXIS2_PLACEMENT_3D ( 'NONE', #38, #33, #247 ) ;
#195 = EDGE_CURVE ( 'NONE', #106, #2, #70, .T. ) ;
#196 = ORIENTED_EDGE ( 'NONE', *, *, #7, .T. ) ;
#197 = ORIENTED_EDGE ( 'NONE', *, *, #232, .T. ) ;
#198 = AXIS2_PLACEMENT_3D ( 'NONE', #206, #129, #31 ) ;
#199 = CC_DESIGN_PERSON_AND_ORGANIZATION_ASSIGNMENT ( #34, #91, ( #20 ) ) ;
#200 = APPROVAL_DATE_TIME ( #123, #158 ) ;
#201 = ORIENTED_EDGE ( 'NONE', *, *, #183, .T. ) ;
#202 = AXIS2_PLACEMENT_3D ( 'NONE', #227, #171, #187 ) ;
#203 = PERSON_AND_ORGANIZATION ( #80, #27 ) ;
#204 = CARTESIAN_POINT ( 'NONE',  ( 16.00000000000000000, 1.959434878635765131E-15, 200.0000000000000000 ) ) ;
#205 = PERSON_AND_ORGANIZATION ( #80, #27 ) ;
#206 = CARTESIAN_POINT ( 'NONE',  ( 0.000000000000000000, 0.000000000000000000, 200.0000000000000000 ) ) ;
#207 = PERSON_AND_ORGANIZATION ( #80, #27 ) ;
#208 = DIRECTION ( 'NONE',  ( 1.000000000000000000, 0.000000000000000000, 0.000000000000000000 ) ) ;
#209 = CIRCLE ( 'NONE', #132, 20.00000000000000000 ) ;
#210 = CARTESIAN_POINT ( 'NONE',  ( 0.000000000000000000, 0.000000000000000000, 10.00000000000000000 ) ) ;
#211 = CC_DESIGN_APPROVAL ( #158, ( #17 ) ) ;
#212 = DIRECTION ( 'NONE',  ( 0.000000000000000000, 0.000000000000000000, 1.000000000000000000 ) ) ;
#213 = LINE ( 'NONE', #84, #231 ) ;
#214 = CC_DESIGN_APPROVAL ( #254, ( #52 ) ) ;
#215 = VECTOR ( 'NONE', #136, 1000.000000000000000 ) ;
#216 = ORIENTED_EDGE ( 'NONE', *, *, #108, .F. ) ;
#217 = APPROVAL ( #128, 'NEURÈENÝ' ) ;
#218 = ORIENTED_EDGE ( 'NONE', *, *, #183, .F. ) ;
#219 = AXIS2_PLACEMENT_3D ( 'NONE', #234, #64, #14 ) ;
#220 = ORIENTED_EDGE ( 'NONE', *, *, #65, .F. ) ;
#221 = PERSON_AND_ORGANIZATION ( #80, #27 ) ;
#222 = ORIENTED_EDGE ( 'NONE', *, *, #87, .F. ) ;
#223 = EDGE_CURVE ( 'NONE', #118, #2, #213, .T. ) ;
#224 = CARTESIAN_POINT ( 'NONE',  ( -20.00000000000000000, 0.000000000000000000, 10.00000000000000000 ) ) ;
#225 = APPROVAL_STATUS ( 'not_yet_approved' ) ;
#226 = CARTESIAN_POINT ( 'NONE',  ( 0.000000000000000000, 0.000000000000000000, 200.0000000000000000 ) ) ;
#227 = CARTESIAN_POINT ( 'NONE',  ( 0.000000000000000000, 0.000000000000000000, 200.0000000000000000 ) ) ;
#228 = FACE_BOUND ( 'NONE', #22, .T. ) ;
#229 = PRODUCT ( 'cba2', 'cba2', '', ( #76 ) ) ;
#230 = DIRECTION ( 'NONE',  ( -0.000000000000000000, -0.000000000000000000, -1.000000000000000000 ) ) ;
#231 = VECTOR ( 'NONE', #176, 1000.000000000000000 ) ;
#232 = EDGE_CURVE ( 'NONE', #88, #235, #11, .T. ) ;
#233 = VECTOR ( 'NONE', #230, 1000.000000000000000 ) ;
#234 = CARTESIAN_POINT ( 'NONE',  ( 0.000000000000000000, 0.000000000000000000, 200.0000000000000000 ) ) ;
#235 = VERTEX_POINT ( 'NONE', #252 ) ;
#236 = CIRCLE ( 'NONE', #141, 16.00000000000000000 ) ;
#237 = CC_DESIGN_PERSON_AND_ORGANIZATION_ASSIGNMENT ( #207, #71, ( #229 ) ) ;
#238 = ORIENTED_EDGE ( 'NONE', *, *, #195, .T. ) ;
#239 = ORIENTED_EDGE ( 'NONE', *, *, #140, .F. ) ;
#240 = DIRECTION ( 'NONE',  ( 1.000000000000000000, 0.000000000000000000, 0.000000000000000000 ) ) ;
#241 = EDGE_LOOP ( 'NONE', ( #220, #48, #120, #165 ) ) ;
#242 = ADVANCED_FACE ( 'NONE', ( #15 ), #103, .T. ) ;
#243 = DIRECTION ( 'NONE',  ( 0.000000000000000000, 0.000000000000000000, 1.000000000000000000 ) ) ;
#244 = DIRECTION ( 'NONE',  ( 1.000000000000000000, 0.000000000000000000, 0.000000000000000000 ) ) ;
#245 = COORDINATED_UNIVERSAL_TIME_OFFSET ( 1, 0, .AHEAD. ) ;
#246 = CARTESIAN_POINT ( 'NONE',  ( 0.000000000000000000, 0.000000000000000000, 10.00000000000000000 ) ) ;
#247 = DIRECTION ( 'NONE',  ( 1.000000000000000000, 0.000000000000000000, 0.000000000000000000 ) ) ;
#248 = EDGE_CURVE ( 'NONE', #235, #88, #160, .T. ) ;
#249 = DIRECTION ( 'NONE',  ( 1.000000000000000000, 0.000000000000000000, -0.000000000000000000 ) ) ;
#250 = PLANE ( 'NONE',  #202 ) ;
#251 =( LENGTH_UNIT ( ) NAMED_UNIT ( * ) SI_UNIT ( .MILLI., .METRE. ) );
#252 = CARTESIAN_POINT ( 'NONE',  ( 20.00000000000000000, 2.449293598294706513E-15, 0.000000000000000000 ) ) ;
#253 = APPROVAL_PERSON_ORGANIZATION ( #186, #254, #184 ) ;
#254 = APPROVAL ( #8, 'NEURÈENÝ' ) ;
#255 = AXIS2_PLACEMENT_3D ( 'NONE', #61, #74, #116 ) ;
ENDSEC;
END-ISO-10303-21;
