ISO-10303-21;
HEADER;
FILE_DESCRIPTION (( 'STEP AP203' ),
    '1' );
FILE_NAME ('f57e.STEP',
    '2023-02-12T10:44:53',
    ( '' ),
    ( '' ),
    'SwSTEP 2.0',
    'SolidWorks 2019',
    '' );
FILE_SCHEMA (( 'CONFIG_CONTROL_DESIGN' ));
ENDSEC;

DATA;
#1 =( NAMED_UNIT ( * ) PLANE_ANGLE_UNIT ( ) SI_UNIT ( $, .RADIAN. ) );
#2 = CC_DESIGN_PERSON_AND_ORGANIZATION_ASSIGNMENT ( #226, #9, ( #122 ) ) ;
#3 = PERSON_AND_ORGANIZATION ( #201, #182 ) ;
#4 = APPROVAL ( #184, 'NEURÈENÝ' ) ;
#5 = APPROVAL_PERSON_ORGANIZATION ( #199, #140, #50 ) ;
#6 = APPROVAL_STATUS ( 'not_yet_approved' ) ;
#7 = PERSON_AND_ORGANIZATION ( #201, #182 ) ;
#8 = CC_DESIGN_DATE_AND_TIME_ASSIGNMENT ( #220, #131, ( #100 ) ) ;
#9 = PERSON_AND_ORGANIZATION_ROLE ( 'creator' ) ;
#10 = EDGE_LOOP ( 'NONE', ( #229, #185, #29, #133 ) ) ;
#11 = FACE_OUTER_BOUND ( 'NONE', #10, .T. ) ;
#12 = ADVANCED_FACE ( 'NONE', ( #11 ), #35, .T. ) ;
#13 = FACE_OUTER_BOUND ( 'NONE', #203, .T. ) ;
#14 = VECTOR ( 'NONE', #154, 1000.000000000000000 ) ;
#15 = CARTESIAN_POINT ( 'NONE',  ( -8.000000000000000000, 0.000000000000000000, 7.000000000000000000 ) ) ;
#16 = DIRECTION ( 'NONE',  ( 0.000000000000000000, 0.000000000000000000, 1.000000000000000000 ) ) ;
#17 = DIRECTION ( 'NONE',  ( 1.000000000000000000, 0.000000000000000000, 0.000000000000000000 ) ) ;
#18 = CIRCLE ( 'NONE', #178, 8.000000000000000000 ) ;
#19 = PRODUCT ( 'f57e', 'f57e', '', ( #123 ) ) ;
#20 = VECTOR ( 'NONE', #73, 1000.000000000000000 ) ;
#21 = DIRECTION ( 'NONE',  ( 0.000000000000000000, 0.000000000000000000, 1.000000000000000000 ) ) ;
#22 = APPROVAL_DATE_TIME ( #196, #103 ) ;
#23 = ADVANCED_FACE ( 'NONE', ( #255 ), #36, .T. ) ;
#24 = CLOSED_SHELL ( 'NONE', ( #61, #120, #23, #111, #180, #12, #45 ) ) ;
#25 = CARTESIAN_POINT ( 'NONE',  ( 8.000000000000000000, 9.797174393178823685E-16, 100.0000000000000000 ) ) ;
#26 = CARTESIAN_POINT ( 'NONE',  ( 8.000000000000000000, 9.797174393178823685E-16, 7.000000000000000000 ) ) ;
#27 = APPLICATION_CONTEXT ( 'configuration controlled 3d designs of mechanical parts and assemblies' ) ;
#28 = APPROVAL_ROLE ( '' ) ;
#29 = ORIENTED_EDGE ( 'NONE', *, *, #202, .T. ) ;
#30 = EDGE_LOOP ( 'NONE', ( #108, #181, #143, #110 ) ) ;
#31 = APPROVAL_DATE_TIME ( #221, #140 ) ;
#32 = VERTEX_POINT ( 'NONE', #77 ) ;
#33 = VERTEX_POINT ( 'NONE', #15 ) ;
#34 = LOCAL_TIME ( 11, 44, 53.00000000000000000, #46 ) ;
#35 = CYLINDRICAL_SURFACE ( 'NONE', #214, 8.000000000000000000 ) ;
#36 = CYLINDRICAL_SURFACE ( 'NONE', #48, 11.00000000000000000 ) ;
#37 = CC_DESIGN_APPROVAL ( #103, ( #100 ) ) ;
#38 = CARTESIAN_POINT ( 'NONE',  ( 0.000000000000000000, 0.000000000000000000, 7.000000000000000000 ) ) ;
#39 = DIRECTION ( 'NONE',  ( -0.000000000000000000, -0.000000000000000000, -1.000000000000000000 ) ) ;
#40 = CARTESIAN_POINT ( 'NONE',  ( -11.00000000000000000, 0.000000000000000000, 0.000000000000000000 ) ) ;
#41 = APPLICATION_PROTOCOL_DEFINITION ( 'international standard', 'config_control_design', 1994, #159 ) ;
#42 = DIRECTION ( 'NONE',  ( 0.000000000000000000, 0.000000000000000000, 1.000000000000000000 ) ) ;
#43 = AXIS2_PLACEMENT_3D ( 'NONE', #189, #56, #191 ) ;
#44 = DIRECTION ( 'NONE',  ( 1.000000000000000000, 0.000000000000000000, -0.000000000000000000 ) ) ;
#45 = ADVANCED_FACE ( 'NONE', ( #13 ), #113, .T. ) ;
#46 = COORDINATED_UNIVERSAL_TIME_OFFSET ( 1, 0, .AHEAD. ) ;
#47 = ORIENTED_EDGE ( 'NONE', *, *, #223, .T. ) ;
#48 = AXIS2_PLACEMENT_3D ( 'NONE', #150, #39, #116 ) ;
#49 = EDGE_LOOP ( 'NONE', ( #207, #224, #147, #200 ) ) ;
#50 = APPROVAL_ROLE ( '' ) ;
#51 = VERTEX_POINT ( 'NONE', #59 ) ;
#52 = EDGE_LOOP ( 'NONE', ( #88, #227 ) ) ;
#53 = EDGE_CURVE ( 'NONE', #51, #222, #18, .T. ) ;
#54 =( GEOMETRIC_REPRESENTATION_CONTEXT ( 3 ) GLOBAL_UNCERTAINTY_ASSIGNED_CONTEXT ( ( #70 ) ) GLOBAL_UNIT_ASSIGNED_CONTEXT ( ( #63, #1, #62 ) ) REPRESENTATION_CONTEXT ( 'NONE', 'WORKASPACE' ) );
#55 = DIRECTION ( 'NONE',  ( -0.000000000000000000, -0.000000000000000000, -1.000000000000000000 ) ) ;
#56 = DIRECTION ( 'NONE',  ( -0.000000000000000000, -0.000000000000000000, -1.000000000000000000 ) ) ;
#57 = CIRCLE ( 'NONE', #162, 8.000000000000000000 ) ;
#58 = CARTESIAN_POINT ( 'NONE',  ( 0.000000000000000000, 0.000000000000000000, 0.000000000000000000 ) ) ;
#59 = CARTESIAN_POINT ( 'NONE',  ( -8.000000000000000000, 0.000000000000000000, 100.0000000000000000 ) ) ;
#60 = DIRECTION ( 'NONE',  ( 1.000000000000000000, 0.000000000000000000, 0.000000000000000000 ) ) ;
#61 = ADVANCED_FACE ( 'NONE', ( #96 ), #76, .T. ) ;
#62 =( NAMED_UNIT ( * ) SI_UNIT ( $, .STERADIAN. ) SOLID_ANGLE_UNIT ( ) );
#63 =( LENGTH_UNIT ( ) NAMED_UNIT ( * ) SI_UNIT ( .MILLI., .METRE. ) );
#64 = APPLICATION_PROTOCOL_DEFINITION ( 'international standard', 'config_control_design', 1994, #27 ) ;
#65 = ORIENTED_EDGE ( 'NONE', *, *, #53, .T. ) ;
#66 = COORDINATED_UNIVERSAL_TIME_OFFSET ( 1, 0, .AHEAD. ) ;
#67 = CC_DESIGN_PERSON_AND_ORGANIZATION_ASSIGNMENT ( #205, #127, ( #122 ) ) ;
#68 = AXIS2_PLACEMENT_3D ( 'NONE', #252, #75, #169 ) ;
#69 = CALENDAR_DATE ( 2023, 12, 2 ) ;
#70 = UNCERTAINTY_MEASURE_WITH_UNIT (LENGTH_MEASURE( 1.000000000000000082E-05 ), #63, 'distance_accuracy_value', 'NONE');
#71 = EDGE_LOOP ( 'NONE', ( #186, #190, #206, #107 ) ) ;
#72 = MANIFOLD_SOLID_BREP ( 'Pøidat vysunutím3', #24 ) ;
#73 = DIRECTION ( 'NONE',  ( -0.000000000000000000, -0.000000000000000000, -1.000000000000000000 ) ) ;
#74 = CC_DESIGN_SECURITY_CLASSIFICATION ( #237, ( #122 ) ) ;
#75 = DIRECTION ( 'NONE',  ( 0.000000000000000000, 0.000000000000000000, 1.000000000000000000 ) ) ;
#76 = CYLINDRICAL_SURFACE ( 'NONE', #218, 8.000000000000000000 ) ;
#77 = CARTESIAN_POINT ( 'NONE',  ( 11.00000000000000000, 1.347111479062088405E-15, 0.000000000000000000 ) ) ;
#78 = LOCAL_TIME ( 11, 44, 53.00000000000000000, #106 ) ;
#79 = DIRECTION ( 'NONE',  ( 0.000000000000000000, 0.000000000000000000, 1.000000000000000000 ) ) ;
#80 = CARTESIAN_POINT ( 'NONE',  ( -8.000000000000000000, 0.000000000000000000, 100.0000000000000000 ) ) ;
#81 = AXIS2_PLACEMENT_3D ( 'NONE', #121, #193, #104 ) ;
#82 = EDGE_CURVE ( 'NONE', #33, #247, #85, .T. ) ;
#83 = PLANE ( 'NONE',  #139 ) ;
#84 = PERSON_AND_ORGANIZATION ( #201, #182 ) ;
#85 = CIRCLE ( 'NONE', #68, 8.000000000000000000 ) ;
#86 = CALENDAR_DATE ( 2023, 12, 2 ) ;
#87 = LOCAL_TIME ( 11, 44, 53.00000000000000000, #66 ) ;
#88 = ORIENTED_EDGE ( 'NONE', *, *, #128, .F. ) ;
#89 = DATE_AND_TIME ( #86, #78 ) ;
#90 = AXIS2_PLACEMENT_3D ( 'NONE', #119, #192, #17 ) ;
#91 = SHAPE_DEFINITION_REPRESENTATION ( #251, #105 ) ;
#92 = VERTEX_POINT ( 'NONE', #98 ) ;
#93 = CC_DESIGN_APPROVAL ( #4, ( #122 ) ) ;
#94 = DIRECTION ( 'NONE',  ( 0.000000000000000000, 0.000000000000000000, 1.000000000000000000 ) ) ;
#95 = DIRECTION ( 'NONE',  ( -1.000000000000000000, 0.000000000000000000, 0.000000000000000000 ) ) ;
#96 = FACE_OUTER_BOUND ( 'NONE', #30, .T. ) ;
#97 = DIRECTION ( 'NONE',  ( -0.000000000000000000, -0.000000000000000000, -1.000000000000000000 ) ) ;
#98 = CARTESIAN_POINT ( 'NONE',  ( 11.00000000000000000, 1.347111479062088405E-15, 7.000000000000000000 ) ) ;
#99 = CIRCLE ( 'NONE', #156, 11.00000000000000000 ) ;
#100 = PRODUCT_DEFINITION ( 'NEZNÁMÝ', '', #122, #219 ) ;
#101 = DIRECTION ( 'NONE',  ( 1.000000000000000000, 0.000000000000000000, 0.000000000000000000 ) ) ;
#102 = FACE_OUTER_BOUND ( 'NONE', #52, .T. ) ;
#103 = APPROVAL ( #157, 'NEURÈENÝ' ) ;
#104 = DIRECTION ( 'NONE',  ( 1.000000000000000000, 0.000000000000000000, 0.000000000000000000 ) ) ;
#105 = ADVANCED_BREP_SHAPE_REPRESENTATION ( 'f57e', ( #72, #194 ), #54 ) ;
#106 = COORDINATED_UNIVERSAL_TIME_OFFSET ( 1, 0, .AHEAD. ) ;
#107 = ORIENTED_EDGE ( 'NONE', *, *, #128, .T. ) ;
#108 = ORIENTED_EDGE ( 'NONE', *, *, #176, .F. ) ;
#109 = PERSON_AND_ORGANIZATION_ROLE ( 'creator' ) ;
#110 = ORIENTED_EDGE ( 'NONE', *, *, #202, .F. ) ;
#111 = ADVANCED_FACE ( 'NONE', ( #209, #151 ), #234, .T. ) ;
#112 = PERSON_AND_ORGANIZATION_ROLE ( 'classification_officer' ) ;
#113 = PLANE ( 'NONE',  #249 ) ;
#114 = DIRECTION ( 'NONE',  ( 1.000000000000000000, 0.000000000000000000, 0.000000000000000000 ) ) ;
#115 = CC_DESIGN_PERSON_AND_ORGANIZATION_ASSIGNMENT ( #204, #109, ( #100 ) ) ;
#116 = DIRECTION ( 'NONE',  ( -1.000000000000000000, 0.000000000000000000, 0.000000000000000000 ) ) ;
#117 = APPROVAL_PERSON_ORGANIZATION ( #7, #4, #28 ) ;
#118 = DIRECTION ( 'NONE',  ( 0.000000000000000000, 0.000000000000000000, 1.000000000000000000 ) ) ;
#119 = CARTESIAN_POINT ( 'NONE',  ( 0.000000000000000000, 0.000000000000000000, 7.000000000000000000 ) ) ;
#120 = ADVANCED_FACE ( 'NONE', ( #232 ), #135, .T. ) ;
#121 = CARTESIAN_POINT ( 'NONE',  ( 0.000000000000000000, 0.000000000000000000, 7.000000000000000000 ) ) ;
#122 = PRODUCT_DEFINITION_FORMATION_WITH_SPECIFIED_SOURCE ( 'LIBOVOLNÝ', '', #19, .NOT_KNOWN. ) ;
#123 = MECHANICAL_CONTEXT ( 'NONE', #159, 'mechanical' ) ;
#124 = COORDINATED_UNIVERSAL_TIME_OFFSET ( 1, 0, .AHEAD. ) ;
#125 = DIRECTION ( 'NONE',  ( -0.000000000000000000, -0.000000000000000000, -1.000000000000000000 ) ) ;
#126 = DIRECTION ( 'NONE',  ( 0.000000000000000000, 0.000000000000000000, 1.000000000000000000 ) ) ;
#127 = PERSON_AND_ORGANIZATION_ROLE ( 'design_supplier' ) ;
#128 = EDGE_CURVE ( 'NONE', #183, #32, #254, .T. ) ;
#129 = ORIENTED_EDGE ( 'NONE', *, *, #82, .F. ) ;
#130 = EDGE_LOOP ( 'NONE', ( #129, #246 ) ) ;
#131 = DATE_TIME_ROLE ( 'creation_date' ) ;
#132 = EDGE_CURVE ( 'NONE', #247, #33, #173, .T. ) ;
#133 = ORIENTED_EDGE ( 'NONE', *, *, #82, .T. ) ;
#134 = ORIENTED_EDGE ( 'NONE', *, *, #176, .T. ) ;
#135 = CYLINDRICAL_SURFACE ( 'NONE', #43, 11.00000000000000000 ) ;
#136 = CC_DESIGN_PERSON_AND_ORGANIZATION_ASSIGNMENT ( #3, #195, ( #19 ) ) ;
#137 = CARTESIAN_POINT ( 'NONE',  ( 0.000000000000000000, 0.000000000000000000, 100.0000000000000000 ) ) ;
#138 = CARTESIAN_POINT ( 'NONE',  ( 11.00000000000000000, 1.347111479062088405E-15, 7.000000000000000000 ) ) ;
#139 = AXIS2_PLACEMENT_3D ( 'NONE', #212, #42, #44 ) ;
#140 = APPROVAL ( #6, 'NEURÈENÝ' ) ;
#141 = CARTESIAN_POINT ( 'NONE',  ( 0.000000000000000000, 0.000000000000000000, 0.000000000000000000 ) ) ;
#142 = SECURITY_CLASSIFICATION_LEVEL ( 'unclassified' ) ;
#143 = ORIENTED_EDGE ( 'NONE', *, *, #132, .T. ) ;
#144 = DATE_AND_TIME ( #241, #198 ) ;
#145 = PERSON_AND_ORGANIZATION ( #201, #182 ) ;
#146 = VECTOR ( 'NONE', #125, 1000.000000000000000 ) ;
#147 = ORIENTED_EDGE ( 'NONE', *, *, #244, .T. ) ;
#148 = LINE ( 'NONE', #231, #243 ) ;
#149 = CC_DESIGN_APPROVAL ( #140, ( #237 ) ) ;
#150 = CARTESIAN_POINT ( 'NONE',  ( 0.000000000000000000, 0.000000000000000000, 7.000000000000000000 ) ) ;
#151 = FACE_OUTER_BOUND ( 'NONE', #168, .T. ) ;
#152 = ORIENTED_EDGE ( 'NONE', *, *, #155, .T. ) ;
#153 = DIRECTION ( 'NONE',  ( 1.000000000000000000, 0.000000000000000000, 0.000000000000000000 ) ) ;
#154 = DIRECTION ( 'NONE',  ( -0.000000000000000000, -0.000000000000000000, -1.000000000000000000 ) ) ;
#155 = EDGE_CURVE ( 'NONE', #92, #167, #235, .T. ) ;
#156 = AXIS2_PLACEMENT_3D ( 'NONE', #240, #21, #101 ) ;
#157 = APPROVAL_STATUS ( 'not_yet_approved' ) ;
#158 = LINE ( 'NONE', #215, #146 ) ;
#159 = APPLICATION_CONTEXT ( 'configuration controlled 3d designs of mechanical parts and assemblies' ) ;
#160 = EDGE_CURVE ( 'NONE', #92, #32, #238, .T. ) ;
#161 = APPROVAL_ROLE ( '' ) ;
#162 = AXIS2_PLACEMENT_3D ( 'NONE', #217, #177, #60 ) ;
#163 = CALENDAR_DATE ( 2023, 12, 2 ) ;
#164 = AXIS2_PLACEMENT_3D ( 'NONE', #38, #118, #248 ) ;
#165 = EDGE_CURVE ( 'NONE', #222, #247, #148, .T. ) ;
#166 = APPROVAL_DATE_TIME ( #144, #4 ) ;
#167 = VERTEX_POINT ( 'NONE', #208 ) ;
#168 = EDGE_LOOP ( 'NONE', ( #47, #152 ) ) ;
#169 = DIRECTION ( 'NONE',  ( 1.000000000000000000, 0.000000000000000000, 0.000000000000000000 ) ) ;
#170 = CARTESIAN_POINT ( 'NONE',  ( 0.000000000000000000, 0.000000000000000000, 100.0000000000000000 ) ) ;
#171 = CARTESIAN_POINT ( 'NONE',  ( 0.000000000000000000, 0.000000000000000000, 100.0000000000000000 ) ) ;
#172 = DIRECTION ( 'NONE',  ( -1.000000000000000000, 0.000000000000000000, 0.000000000000000000 ) ) ;
#173 = CIRCLE ( 'NONE', #90, 8.000000000000000000 ) ;
#174 = CARTESIAN_POINT ( 'NONE',  ( 0.000000000000000000, 0.000000000000000000, 7.000000000000000000 ) ) ;
#175 = LINE ( 'NONE', #80, #14 ) ;
#176 = EDGE_CURVE ( 'NONE', #222, #51, #57, .T. ) ;
#177 = DIRECTION ( 'NONE',  ( 0.000000000000000000, 0.000000000000000000, 1.000000000000000000 ) ) ;
#178 = AXIS2_PLACEMENT_3D ( 'NONE', #137, #94, #114 ) ;
#179 = LOCAL_TIME ( 11, 44, 53.00000000000000000, #124 ) ;
#180 = ADVANCED_FACE ( 'NONE', ( #102 ), #83, .F. ) ;
#181 = ORIENTED_EDGE ( 'NONE', *, *, #165, .T. ) ;
#182 = ORGANIZATION ( 'NEURÈENÝ', 'NEURÈENÝ', '' ) ;
#183 = VERTEX_POINT ( 'NONE', #40 ) ;
#184 = APPROVAL_STATUS ( 'not_yet_approved' ) ;
#185 = ORIENTED_EDGE ( 'NONE', *, *, #53, .F. ) ;
#186 = ORIENTED_EDGE ( 'NONE', *, *, #160, .F. ) ;
#187 = EDGE_CURVE ( 'NONE', #167, #183, #158, .T. ) ;
#188 = DIRECTION ( 'NONE',  ( -0.000000000000000000, -0.000000000000000000, -1.000000000000000000 ) ) ;
#189 = CARTESIAN_POINT ( 'NONE',  ( 0.000000000000000000, 0.000000000000000000, 7.000000000000000000 ) ) ;
#190 = ORIENTED_EDGE ( 'NONE', *, *, #223, .F. ) ;
#191 = DIRECTION ( 'NONE',  ( -1.000000000000000000, 0.000000000000000000, 0.000000000000000000 ) ) ;
#192 = DIRECTION ( 'NONE',  ( 0.000000000000000000, 0.000000000000000000, 1.000000000000000000 ) ) ;
#193 = DIRECTION ( 'NONE',  ( 0.000000000000000000, 0.000000000000000000, 1.000000000000000000 ) ) ;
#194 = AXIS2_PLACEMENT_3D ( 'NONE', #141, #126, #216 ) ;
#195 = PERSON_AND_ORGANIZATION_ROLE ( 'design_owner' ) ;
#196 = DATE_AND_TIME ( #239, #179 ) ;
#197 = AXIS2_PLACEMENT_3D ( 'NONE', #58, #16, #211 ) ;
#198 = LOCAL_TIME ( 11, 44, 53.00000000000000000, #242 ) ;
#199 = PERSON_AND_ORGANIZATION ( #201, #182 ) ;
#200 = ORIENTED_EDGE ( 'NONE', *, *, #187, .F. ) ;
#201 = PERSON ( 'NEURÈENÝ', 'NEURÈENÝ', 'NEURÈENÝ', ('NEURÈENÝ'), ('NEURÈENÝ'), ('NEURÈENÝ') ) ;
#202 = EDGE_CURVE ( 'NONE', #51, #33, #175, .T. ) ;
#203 = EDGE_LOOP ( 'NONE', ( #65, #134 ) ) ;
#204 = PERSON_AND_ORGANIZATION ( #201, #182 ) ;
#205 = PERSON_AND_ORGANIZATION ( #201, #182 ) ;
#206 = ORIENTED_EDGE ( 'NONE', *, *, #187, .T. ) ;
#207 = ORIENTED_EDGE ( 'NONE', *, *, #155, .F. ) ;
#208 = CARTESIAN_POINT ( 'NONE',  ( -11.00000000000000000, 0.000000000000000000, 7.000000000000000000 ) ) ;
#209 = FACE_BOUND ( 'NONE', #130, .T. ) ;
#210 = CIRCLE ( 'NONE', #81, 11.00000000000000000 ) ;
#211 = DIRECTION ( 'NONE',  ( 1.000000000000000000, 0.000000000000000000, 0.000000000000000000 ) ) ;
#212 = CARTESIAN_POINT ( 'NONE',  ( 0.000000000000000000, 0.000000000000000000, 0.000000000000000000 ) ) ;
#213 = CC_DESIGN_DATE_AND_TIME_ASSIGNMENT ( #89, #245, ( #237 ) ) ;
#214 = AXIS2_PLACEMENT_3D ( 'NONE', #170, #97, #172 ) ;
#215 = CARTESIAN_POINT ( 'NONE',  ( -11.00000000000000000, 0.000000000000000000, 7.000000000000000000 ) ) ;
#216 = DIRECTION ( 'NONE',  ( 1.000000000000000000, 0.000000000000000000, 0.000000000000000000 ) ) ;
#217 = CARTESIAN_POINT ( 'NONE',  ( 0.000000000000000000, 0.000000000000000000, 100.0000000000000000 ) ) ;
#218 = AXIS2_PLACEMENT_3D ( 'NONE', #171, #188, #95 ) ;
#219 = DESIGN_CONTEXT ( 'detailed design', #27, 'design' ) ;
#220 = DATE_AND_TIME ( #69, #87 ) ;
#221 = DATE_AND_TIME ( #163, #34 ) ;
#222 = VERTEX_POINT ( 'NONE', #25 ) ;
#223 = EDGE_CURVE ( 'NONE', #167, #92, #210, .T. ) ;
#224 = ORIENTED_EDGE ( 'NONE', *, *, #160, .T. ) ;
#225 = APPROVAL_PERSON_ORGANIZATION ( #84, #103, #161 ) ;
#226 = PERSON_AND_ORGANIZATION ( #201, #182 ) ;
#227 = ORIENTED_EDGE ( 'NONE', *, *, #244, .F. ) ;
#228 = PRODUCT_RELATED_PRODUCT_CATEGORY ( 'detail', '', ( #19 ) ) ;
#229 = ORIENTED_EDGE ( 'NONE', *, *, #165, .F. ) ;
#230 = AXIS2_PLACEMENT_3D ( 'NONE', #174, #79, #153 ) ;
#231 = CARTESIAN_POINT ( 'NONE',  ( 8.000000000000000000, 9.797174393178823685E-16, 100.0000000000000000 ) ) ;
#232 = FACE_OUTER_BOUND ( 'NONE', #49, .T. ) ;
#233 = CC_DESIGN_PERSON_AND_ORGANIZATION_ASSIGNMENT ( #145, #112, ( #237 ) ) ;
#234 = PLANE ( 'NONE',  #164 ) ;
#235 = CIRCLE ( 'NONE', #230, 11.00000000000000000 ) ;
#236 = DIRECTION ( 'NONE',  ( 1.000000000000000000, 0.000000000000000000, -0.000000000000000000 ) ) ;
#237 = SECURITY_CLASSIFICATION ( '', '', #142 ) ;
#238 = LINE ( 'NONE', #138, #20 ) ;
#239 = CALENDAR_DATE ( 2023, 12, 2 ) ;
#240 = CARTESIAN_POINT ( 'NONE',  ( 0.000000000000000000, 0.000000000000000000, 0.000000000000000000 ) ) ;
#241 = CALENDAR_DATE ( 2023, 12, 2 ) ;
#242 = COORDINATED_UNIVERSAL_TIME_OFFSET ( 1, 0, .AHEAD. ) ;
#243 = VECTOR ( 'NONE', #55, 1000.000000000000000 ) ;
#244 = EDGE_CURVE ( 'NONE', #32, #183, #99, .T. ) ;
#245 = DATE_TIME_ROLE ( 'classification_date' ) ;
#246 = ORIENTED_EDGE ( 'NONE', *, *, #132, .F. ) ;
#247 = VERTEX_POINT ( 'NONE', #26 ) ;
#248 = DIRECTION ( 'NONE',  ( 1.000000000000000000, 0.000000000000000000, -0.000000000000000000 ) ) ;
#249 = AXIS2_PLACEMENT_3D ( 'NONE', #250, #253, #236 ) ;
#250 = CARTESIAN_POINT ( 'NONE',  ( 0.000000000000000000, 0.000000000000000000, 100.0000000000000000 ) ) ;
#251 = PRODUCT_DEFINITION_SHAPE ( 'NONE', 'NONE',  #100 ) ;
#252 = CARTESIAN_POINT ( 'NONE',  ( 0.000000000000000000, 0.000000000000000000, 7.000000000000000000 ) ) ;
#253 = DIRECTION ( 'NONE',  ( 0.000000000000000000, 0.000000000000000000, 1.000000000000000000 ) ) ;
#254 = CIRCLE ( 'NONE', #197, 11.00000000000000000 ) ;
#255 = FACE_OUTER_BOUND ( 'NONE', #71, .T. ) ;
ENDSEC;
END-ISO-10303-21;
