ISO-10303-21;
HEADER;
FILE_DESCRIPTION (( 'STEP AP203' ),
    '1' );
FILE_NAME ('2a9b.STEP',
    '2023-02-12T11:56:21',
    ( '' ),
    ( '' ),
    'SwSTEP 2.0',
    'SolidWorks 2019',
    '' );
FILE_SCHEMA (( 'CONFIG_CONTROL_DESIGN' ));
ENDSEC;

DATA;
#1 = DIRECTION ( 'NONE',  ( 0.000000000000000000, 0.000000000000000000, 1.000000000000000000 ) ) ;
#2 = EDGE_CURVE ( 'NONE', #36, #203, #190, .T. ) ;
#3 = DIRECTION ( 'NONE',  ( 0.000000000000000000, 0.000000000000000000, 1.000000000000000000 ) ) ;
#4 = VECTOR ( 'NONE', #29, 1000.000000000000000 ) ;
#5 = FACE_OUTER_BOUND ( 'NONE', #209, .T. ) ;
#6 = ADVANCED_FACE ( 'NONE', ( #5 ), #148, .T. ) ;
#7 = DATE_AND_TIME ( #170, #250 ) ;
#8 = ORIENTED_EDGE ( 'NONE', *, *, #116, .F. ) ;
#9 = DATE_TIME_ROLE ( 'creation_date' ) ;
#10 = LINE ( 'NONE', #49, #140 ) ;
#11 = CARTESIAN_POINT ( 'NONE',  ( 6.000000000000000888, 7.347880794884120722E-16, 0.000000000000000000 ) ) ;
#12 = PERSON_AND_ORGANIZATION ( #32, #153 ) ;
#13 = EDGE_CURVE ( 'NONE', #203, #36, #192, .T. ) ;
#14 = APPLICATION_CONTEXT ( 'configuration controlled 3d designs of mechanical parts and assemblies' ) ;
#15 = APPROVAL_PERSON_ORGANIZATION ( #94, #110, #245 ) ;
#16 = CIRCLE ( 'NONE', #163, 3.750000000000000000 ) ;
#17 = EDGE_LOOP ( 'NONE', ( #193, #252 ) ) ;
#18 = DIRECTION ( 'NONE',  ( 1.000000000000000000, 0.000000000000000000, 0.000000000000000000 ) ) ;
#19 = EDGE_LOOP ( 'NONE', ( #253, #119 ) ) ;
#20 = FACE_OUTER_BOUND ( 'NONE', #17, .T. ) ;
#21 = ORIENTED_EDGE ( 'NONE', *, *, #25, .F. ) ;
#22 = APPROVAL ( #215, 'NEURÈENÝ' ) ;
#23 = ORIENTED_EDGE ( 'NONE', *, *, #133, .F. ) ;
#24 =( NAMED_UNIT ( * ) PLANE_ANGLE_UNIT ( ) SI_UNIT ( $, .RADIAN. ) );
#25 = EDGE_CURVE ( 'NONE', #203, #27, #10, .T. ) ;
#26 = DIRECTION ( 'NONE',  ( 0.000000000000000000, 0.000000000000000000, 1.000000000000000000 ) ) ;
#27 = VERTEX_POINT ( 'NONE', #212 ) ;
#28 = DIRECTION ( 'NONE',  ( 1.000000000000000000, 0.000000000000000000, 0.000000000000000000 ) ) ;
#29 = DIRECTION ( 'NONE',  ( -0.000000000000000000, -0.000000000000000000, -1.000000000000000000 ) ) ;
#30 = PERSON_AND_ORGANIZATION_ROLE ( 'creator' ) ;
#31 = CIRCLE ( 'NONE', #43, 3.750000000000000000 ) ;
#32 = PERSON ( 'NEURÈENÝ', 'NEURÈENÝ', 'NEURÈENÝ', ('NEURÈENÝ'), ('NEURÈENÝ'), ('NEURÈENÝ') ) ;
#33 = PERSON_AND_ORGANIZATION ( #32, #153 ) ;
#34 = APPLICATION_CONTEXT ( 'configuration controlled 3d designs of mechanical parts and assemblies' ) ;
#35 = AXIS2_PLACEMENT_3D ( 'NONE', #238, #1, #176 ) ;
#36 = VERTEX_POINT ( 'NONE', #46 ) ;
#37 = VECTOR ( 'NONE', #62, 1000.000000000000000 ) ;
#38 = VECTOR ( 'NONE', #144, 1000.000000000000000 ) ;
#39 = ORIENTED_EDGE ( 'NONE', *, *, #225, .T. ) ;
#40 = FACE_BOUND ( 'NONE', #158, .T. ) ;
#41 = EDGE_LOOP ( 'NONE', ( #174, #139, #39, #81 ) ) ;
#42 = DIRECTION ( 'NONE',  ( -1.000000000000000000, 0.000000000000000000, 0.000000000000000000 ) ) ;
#43 = AXIS2_PLACEMENT_3D ( 'NONE', #45, #164, #87 ) ;
#44 = ADVANCED_BREP_SHAPE_REPRESENTATION ( '2a9b', ( #189, #78 ), #240 ) ;
#45 = CARTESIAN_POINT ( 'NONE',  ( 0.000000000000000000, 0.000000000000000000, 5.000000000000000000 ) ) ;
#46 = CARTESIAN_POINT ( 'NONE',  ( 6.000000000000000888, 7.347880794884120722E-16, 5.000000000000000000 ) ) ;
#47 = CARTESIAN_POINT ( 'NONE',  ( 0.000000000000000000, 0.000000000000000000, 500.0000000000000000 ) ) ;
#48 = PERSON_AND_ORGANIZATION_ROLE ( 'classification_officer' ) ;
#49 = CARTESIAN_POINT ( 'NONE',  ( -6.000000000000000888, 0.000000000000000000, 5.000000000000000000 ) ) ;
#50 = APPROVAL_STATUS ( 'not_yet_approved' ) ;
#51 = CARTESIAN_POINT ( 'NONE',  ( 3.750000000000000000, 4.592425496802573972E-16, 500.0000000000000000 ) ) ;
#52 = CALENDAR_DATE ( 2023, 12, 2 ) ;
#53 = DIRECTION ( 'NONE',  ( 0.000000000000000000, 0.000000000000000000, 1.000000000000000000 ) ) ;
#54 = APPROVAL_ROLE ( '' ) ;
#55 = AXIS2_PLACEMENT_3D ( 'NONE', #181, #92, #165 ) ;
#56 = CC_DESIGN_APPROVAL ( #22, ( #80 ) ) ;
#57 = VERTEX_POINT ( 'NONE', #210 ) ;
#58 = CYLINDRICAL_SURFACE ( 'NONE', #221, 3.750000000000000000 ) ;
#59 = EDGE_CURVE ( 'NONE', #88, #86, #16, .T. ) ;
#60 = CC_DESIGN_PERSON_AND_ORGANIZATION_ASSIGNMENT ( #12, #208, ( #138 ) ) ;
#61 = DIRECTION ( 'NONE',  ( -0.000000000000000000, -0.000000000000000000, -1.000000000000000000 ) ) ;
#62 = DIRECTION ( 'NONE',  ( -0.000000000000000000, -0.000000000000000000, -1.000000000000000000 ) ) ;
#63 = APPROVAL_PERSON_ORGANIZATION ( #145, #77, #54 ) ;
#64 = AXIS2_PLACEMENT_3D ( 'NONE', #126, #231, #146 ) ;
#65 = DIRECTION ( 'NONE',  ( 1.000000000000000000, 0.000000000000000000, -0.000000000000000000 ) ) ;
#66 = CARTESIAN_POINT ( 'NONE',  ( 6.000000000000000888, 7.347880794884120722E-16, 5.000000000000000000 ) ) ;
#67 = PERSON_AND_ORGANIZATION ( #32, #153 ) ;
#68 = ORIENTED_EDGE ( 'NONE', *, *, #130, .T. ) ;
#69 = APPROVAL_DATE_TIME ( #184, #110 ) ;
#70 = CYLINDRICAL_SURFACE ( 'NONE', #117, 6.000000000000000888 ) ;
#71 = PERSON_AND_ORGANIZATION_ROLE ( 'design_supplier' ) ;
#72 = DIRECTION ( 'NONE',  ( -1.000000000000000000, 0.000000000000000000, 0.000000000000000000 ) ) ;
#73 = PERSON_AND_ORGANIZATION ( #32, #153 ) ;
#74 = APPROVAL_DATE_TIME ( #229, #77 ) ;
#75 = LOCAL_TIME ( 12, 56, 21.00000000000000000, #114 ) ;
#76 = CIRCLE ( 'NONE', #79, 3.750000000000000000 ) ;
#77 = APPROVAL ( #50, 'NEURÈENÝ' ) ;
#78 = AXIS2_PLACEMENT_3D ( 'NONE', #143, #141, #18 ) ;
#79 = AXIS2_PLACEMENT_3D ( 'NONE', #124, #118, #103 ) ;
#80 = PRODUCT_DEFINITION ( 'NEZNÁMÝ', '', #138, #120 ) ;
#81 = ORIENTED_EDGE ( 'NONE', *, *, #133, .T. ) ;
#82 = CC_DESIGN_DATE_AND_TIME_ASSIGNMENT ( #7, #248, ( #105 ) ) ;
#83 = DIRECTION ( 'NONE',  ( -0.000000000000000000, -0.000000000000000000, -1.000000000000000000 ) ) ;
#84 = ORIENTED_EDGE ( 'NONE', *, *, #230, .F. ) ;
#85 = FACE_OUTER_BOUND ( 'NONE', #134, .T. ) ;
#86 = VERTEX_POINT ( 'NONE', #234 ) ;
#87 = DIRECTION ( 'NONE',  ( 1.000000000000000000, 0.000000000000000000, 0.000000000000000000 ) ) ;
#88 = VERTEX_POINT ( 'NONE', #95 ) ;
#89 = AXIS2_PLACEMENT_3D ( 'NONE', #227, #167, #244 ) ;
#90 = CARTESIAN_POINT ( 'NONE',  ( -6.000000000000000888, 0.000000000000000000, 5.000000000000000000 ) ) ;
#91 = AXIS2_PLACEMENT_3D ( 'NONE', #199, #101, #135 ) ;
#92 = DIRECTION ( 'NONE',  ( 0.000000000000000000, 0.000000000000000000, 1.000000000000000000 ) ) ;
#93 = DIRECTION ( 'NONE',  ( -0.000000000000000000, -0.000000000000000000, -1.000000000000000000 ) ) ;
#94 = PERSON_AND_ORGANIZATION ( #32, #153 ) ;
#95 = CARTESIAN_POINT ( 'NONE',  ( -3.750000000000000000, 0.000000000000000000, 500.0000000000000000 ) ) ;
#96 = PERSON_AND_ORGANIZATION ( #32, #153 ) ;
#97 = LINE ( 'NONE', #51, #4 ) ;
#98 = COORDINATED_UNIVERSAL_TIME_OFFSET ( 1, 0, .AHEAD. ) ;
#99 = AXIS2_PLACEMENT_3D ( 'NONE', #219, #3, #65 ) ;
#100 = ADVANCED_FACE ( 'NONE', ( #169 ), #70, .T. ) ;
#101 = DIRECTION ( 'NONE',  ( 0.000000000000000000, 0.000000000000000000, 1.000000000000000000 ) ) ;
#102 = VERTEX_POINT ( 'NONE', #11 ) ;
#103 = DIRECTION ( 'NONE',  ( 1.000000000000000000, 0.000000000000000000, 0.000000000000000000 ) ) ;
#104 = PLANE ( 'NONE',  #55 ) ;
#105 = SECURITY_CLASSIFICATION ( '', '', #149 ) ;
#106 = APPROVAL_ROLE ( '' ) ;
#107 = ORIENTED_EDGE ( 'NONE', *, *, #225, .F. ) ;
#108 = EDGE_CURVE ( 'NONE', #86, #57, #97, .T. ) ;
#109 = CARTESIAN_POINT ( 'NONE',  ( 0.000000000000000000, 0.000000000000000000, 500.0000000000000000 ) ) ;
#110 = APPROVAL ( #168, 'NEURÈENÝ' ) ;
#111 = DATE_AND_TIME ( #147, #131 ) ;
#112 = DIRECTION ( 'NONE',  ( -0.000000000000000000, -0.000000000000000000, -1.000000000000000000 ) ) ;
#113 = CALENDAR_DATE ( 2023, 12, 2 ) ;
#114 = COORDINATED_UNIVERSAL_TIME_OFFSET ( 1, 0, .AHEAD. ) ;
#115 = CIRCLE ( 'NONE', #91, 6.000000000000000888 ) ;
#116 = EDGE_CURVE ( 'NONE', #86, #88, #182, .T. ) ;
#117 = AXIS2_PLACEMENT_3D ( 'NONE', #232, #112, #187 ) ;
#118 = DIRECTION ( 'NONE',  ( 0.000000000000000000, 0.000000000000000000, 1.000000000000000000 ) ) ;
#119 = ORIENTED_EDGE ( 'NONE', *, *, #116, .T. ) ;
#120 = DESIGN_CONTEXT ( 'detailed design', #14, 'design' ) ;
#121 = CARTESIAN_POINT ( 'NONE',  ( 0.000000000000000000, 0.000000000000000000, 500.0000000000000000 ) ) ;
#122 = DIRECTION ( 'NONE',  ( 1.000000000000000000, 0.000000000000000000, 0.000000000000000000 ) ) ;
#123 = ADVANCED_FACE ( 'NONE', ( #206 ), #104, .T. ) ;
#124 = CARTESIAN_POINT ( 'NONE',  ( 0.000000000000000000, 0.000000000000000000, 5.000000000000000000 ) ) ;
#125 = EDGE_LOOP ( 'NONE', ( #156, #150 ) ) ;
#126 = CARTESIAN_POINT ( 'NONE',  ( 0.000000000000000000, 0.000000000000000000, 5.000000000000000000 ) ) ;
#127 = SHAPE_DEFINITION_REPRESENTATION ( #220, #44 ) ;
#128 = CC_DESIGN_APPROVAL ( #77, ( #138 ) ) ;
#129 = AXIS2_PLACEMENT_3D ( 'NONE', #171, #53, #122 ) ;
#130 = EDGE_CURVE ( 'NONE', #36, #102, #243, .T. ) ;
#131 = LOCAL_TIME ( 12, 56, 21.00000000000000000, #98 ) ;
#132 = ORIENTED_EDGE ( 'NONE', *, *, #130, .F. ) ;
#133 = EDGE_CURVE ( 'NONE', #217, #57, #76, .T. ) ;
#134 = EDGE_LOOP ( 'NONE', ( #196, #68, #246, #21 ) ) ;
#135 = DIRECTION ( 'NONE',  ( 1.000000000000000000, 0.000000000000000000, 0.000000000000000000 ) ) ;
#136 = DIRECTION ( 'NONE',  ( 0.000000000000000000, 0.000000000000000000, 1.000000000000000000 ) ) ;
#137 = CC_DESIGN_PERSON_AND_ORGANIZATION_ASSIGNMENT ( #96, #30, ( #80 ) ) ;
#138 = PRODUCT_DEFINITION_FORMATION_WITH_SPECIFIED_SOURCE ( 'LIBOVOLNÝ', '', #142, .NOT_KNOWN. ) ;
#139 = ORIENTED_EDGE ( 'NONE', *, *, #59, .F. ) ;
#140 = VECTOR ( 'NONE', #247, 1000.000000000000000 ) ;
#141 = DIRECTION ( 'NONE',  ( 0.000000000000000000, 0.000000000000000000, 1.000000000000000000 ) ) ;
#142 = PRODUCT ( '2a9b', '2a9b', '', ( #160 ) ) ;
#143 = CARTESIAN_POINT ( 'NONE',  ( 0.000000000000000000, 0.000000000000000000, 0.000000000000000000 ) ) ;
#144 = DIRECTION ( 'NONE',  ( -0.000000000000000000, -0.000000000000000000, -1.000000000000000000 ) ) ;
#145 = PERSON_AND_ORGANIZATION ( #32, #153 ) ;
#146 = DIRECTION ( 'NONE',  ( 1.000000000000000000, 0.000000000000000000, 0.000000000000000000 ) ) ;
#147 = CALENDAR_DATE ( 2023, 12, 2 ) ;
#148 = CYLINDRICAL_SURFACE ( 'NONE', #241, 3.750000000000000000 ) ;
#149 = SECURITY_CLASSIFICATION_LEVEL ( 'unclassified' ) ;
#150 = ORIENTED_EDGE ( 'NONE', *, *, #2, .T. ) ;
#151 = LOCAL_TIME ( 12, 56, 21.00000000000000000, #233 ) ;
#152 = CC_DESIGN_PERSON_AND_ORGANIZATION_ASSIGNMENT ( #73, #48, ( #105 ) ) ;
#153 = ORGANIZATION ( 'NEURÈENÝ', 'NEURÈENÝ', '' ) ;
#154 = CIRCLE ( 'NONE', #35, 6.000000000000000888 ) ;
#155 = CARTESIAN_POINT ( 'NONE',  ( 0.000000000000000000, 0.000000000000000000, 5.000000000000000000 ) ) ;
#156 = ORIENTED_EDGE ( 'NONE', *, *, #13, .T. ) ;
#157 = FACE_OUTER_BOUND ( 'NONE', #41, .T. ) ;
#158 = EDGE_LOOP ( 'NONE', ( #23, #84 ) ) ;
#159 = CARTESIAN_POINT ( 'NONE',  ( -3.750000000000000000, 0.000000000000000000, 5.000000000000000000 ) ) ;
#160 = MECHANICAL_CONTEXT ( 'NONE', #34, 'mechanical' ) ;
#161 = CC_DESIGN_SECURITY_CLASSIFICATION ( #105, ( #138 ) ) ;
#162 = ORIENTED_EDGE ( 'NONE', *, *, #230, .T. ) ;
#163 = AXIS2_PLACEMENT_3D ( 'NONE', #109, #26, #28 ) ;
#164 = DIRECTION ( 'NONE',  ( 0.000000000000000000, 0.000000000000000000, 1.000000000000000000 ) ) ;
#165 = DIRECTION ( 'NONE',  ( 1.000000000000000000, 0.000000000000000000, -0.000000000000000000 ) ) ;
#166 = CC_DESIGN_DATE_AND_TIME_ASSIGNMENT ( #235, #9, ( #80 ) ) ;
#167 = DIRECTION ( 'NONE',  ( 0.000000000000000000, 0.000000000000000000, 1.000000000000000000 ) ) ;
#168 = APPROVAL_STATUS ( 'not_yet_approved' ) ;
#169 = FACE_OUTER_BOUND ( 'NONE', #183, .T. ) ;
#170 = CALENDAR_DATE ( 2023, 12, 2 ) ;
#171 = CARTESIAN_POINT ( 'NONE',  ( 0.000000000000000000, 0.000000000000000000, 500.0000000000000000 ) ) ;
#172 = COORDINATED_UNIVERSAL_TIME_OFFSET ( 1, 0, .AHEAD. ) ;
#173 = EDGE_CURVE ( 'NONE', #102, #27, #115, .T. ) ;
#174 = ORIENTED_EDGE ( 'NONE', *, *, #108, .F. ) ;
#175 = EDGE_CURVE ( 'NONE', #27, #102, #154, .T. ) ;
#176 = DIRECTION ( 'NONE',  ( 1.000000000000000000, 0.000000000000000000, 0.000000000000000000 ) ) ;
#177 = PLANE ( 'NONE',  #216 ) ;
#178 = ORIENTED_EDGE ( 'NONE', *, *, #25, .T. ) ;
#179 = FACE_OUTER_BOUND ( 'NONE', #125, .T. ) ;
#180 = AXIS2_PLACEMENT_3D ( 'NONE', #155, #61, #42 ) ;
#181 = CARTESIAN_POINT ( 'NONE',  ( 0.000000000000000000, 0.000000000000000000, 500.0000000000000000 ) ) ;
#182 = CIRCLE ( 'NONE', #129, 3.750000000000000000 ) ;
#183 = EDGE_LOOP ( 'NONE', ( #132, #236, #178, #224 ) ) ;
#184 = DATE_AND_TIME ( #52, #151 ) ;
#185 = ORIENTED_EDGE ( 'NONE', *, *, #108, .T. ) ;
#186 = CALENDAR_DATE ( 2023, 12, 2 ) ;
#187 = DIRECTION ( 'NONE',  ( -1.000000000000000000, 0.000000000000000000, 0.000000000000000000 ) ) ;
#188 = COORDINATED_UNIVERSAL_TIME_OFFSET ( 1, 0, .AHEAD. ) ;
#189 = MANIFOLD_SOLID_BREP ( 'Pøidat vysunutím3', #237 ) ;
#190 = CIRCLE ( 'NONE', #64, 6.000000000000000888 ) ;
#191 = APPROVAL_PERSON_ORGANIZATION ( #67, #22, #106 ) ;
#192 = CIRCLE ( 'NONE', #89, 6.000000000000000888 ) ;
#193 = ORIENTED_EDGE ( 'NONE', *, *, #175, .F. ) ;
#194 = CC_DESIGN_PERSON_AND_ORGANIZATION_ASSIGNMENT ( #218, #254, ( #142 ) ) ;
#195 = DIRECTION ( 'NONE',  ( 1.000000000000000000, 0.000000000000000000, -0.000000000000000000 ) ) ;
#196 = ORIENTED_EDGE ( 'NONE', *, *, #2, .F. ) ;
#197 = ADVANCED_FACE ( 'NONE', ( #20 ), #255, .F. ) ;
#198 = UNCERTAINTY_MEASURE_WITH_UNIT (LENGTH_MEASURE( 1.000000000000000082E-05 ), #205, 'distance_accuracy_value', 'NONE');
#199 = CARTESIAN_POINT ( 'NONE',  ( 0.000000000000000000, 0.000000000000000000, 0.000000000000000000 ) ) ;
#200 = CC_DESIGN_PERSON_AND_ORGANIZATION_ASSIGNMENT ( #33, #71, ( #138 ) ) ;
#201 = CC_DESIGN_APPROVAL ( #110, ( #105 ) ) ;
#202 = LINE ( 'NONE', #239, #37 ) ;
#203 = VERTEX_POINT ( 'NONE', #90 ) ;
#204 =( NAMED_UNIT ( * ) SI_UNIT ( $, .STERADIAN. ) SOLID_ANGLE_UNIT ( ) );
#205 =( LENGTH_UNIT ( ) NAMED_UNIT ( * ) SI_UNIT ( .MILLI., .METRE. ) );
#206 = FACE_OUTER_BOUND ( 'NONE', #19, .T. ) ;
#207 = ADVANCED_FACE ( 'NONE', ( #85 ), #223, .T. ) ;
#208 = PERSON_AND_ORGANIZATION_ROLE ( 'creator' ) ;
#209 = EDGE_LOOP ( 'NONE', ( #8, #185, #162, #107 ) ) ;
#210 = CARTESIAN_POINT ( 'NONE',  ( 3.750000000000000000, 4.592425496802573972E-16, 5.000000000000000000 ) ) ;
#211 = APPLICATION_PROTOCOL_DEFINITION ( 'international standard', 'config_control_design', 1994, #14 ) ;
#212 = CARTESIAN_POINT ( 'NONE',  ( -6.000000000000000888, 0.000000000000000000, 0.000000000000000000 ) ) ;
#213 = APPROVAL_DATE_TIME ( #111, #22 ) ;
#214 = LOCAL_TIME ( 12, 56, 21.00000000000000000, #188 ) ;
#215 = APPROVAL_STATUS ( 'not_yet_approved' ) ;
#216 = AXIS2_PLACEMENT_3D ( 'NONE', #226, #136, #195 ) ;
#217 = VERTEX_POINT ( 'NONE', #159 ) ;
#218 = PERSON_AND_ORGANIZATION ( #32, #153 ) ;
#219 = CARTESIAN_POINT ( 'NONE',  ( 0.000000000000000000, 0.000000000000000000, 0.000000000000000000 ) ) ;
#220 = PRODUCT_DEFINITION_SHAPE ( 'NONE', 'NONE',  #80 ) ;
#221 = AXIS2_PLACEMENT_3D ( 'NONE', #121, #83, #222 ) ;
#222 = DIRECTION ( 'NONE',  ( -1.000000000000000000, 0.000000000000000000, 0.000000000000000000 ) ) ;
#223 = CYLINDRICAL_SURFACE ( 'NONE', #180, 6.000000000000000888 ) ;
#224 = ORIENTED_EDGE ( 'NONE', *, *, #175, .T. ) ;
#225 = EDGE_CURVE ( 'NONE', #88, #217, #202, .T. ) ;
#226 = CARTESIAN_POINT ( 'NONE',  ( 0.000000000000000000, 0.000000000000000000, 5.000000000000000000 ) ) ;
#227 = CARTESIAN_POINT ( 'NONE',  ( 0.000000000000000000, 0.000000000000000000, 5.000000000000000000 ) ) ;
#228 = ADVANCED_FACE ( 'NONE', ( #40, #179 ), #177, .T. ) ;
#229 = DATE_AND_TIME ( #113, #75 ) ;
#230 = EDGE_CURVE ( 'NONE', #57, #217, #31, .T. ) ;
#231 = DIRECTION ( 'NONE',  ( 0.000000000000000000, 0.000000000000000000, 1.000000000000000000 ) ) ;
#232 = CARTESIAN_POINT ( 'NONE',  ( 0.000000000000000000, 0.000000000000000000, 5.000000000000000000 ) ) ;
#233 = COORDINATED_UNIVERSAL_TIME_OFFSET ( 1, 0, .AHEAD. ) ;
#234 = CARTESIAN_POINT ( 'NONE',  ( 3.750000000000000000, 4.592425496802573972E-16, 500.0000000000000000 ) ) ;
#235 = DATE_AND_TIME ( #186, #214 ) ;
#236 = ORIENTED_EDGE ( 'NONE', *, *, #13, .F. ) ;
#237 = CLOSED_SHELL ( 'NONE', ( #6, #207, #100, #228, #197, #249, #123 ) ) ;
#238 = CARTESIAN_POINT ( 'NONE',  ( 0.000000000000000000, 0.000000000000000000, 0.000000000000000000 ) ) ;
#239 = CARTESIAN_POINT ( 'NONE',  ( -3.750000000000000000, 0.000000000000000000, 500.0000000000000000 ) ) ;
#240 =( GEOMETRIC_REPRESENTATION_CONTEXT ( 3 ) GLOBAL_UNCERTAINTY_ASSIGNED_CONTEXT ( ( #198 ) ) GLOBAL_UNIT_ASSIGNED_CONTEXT ( ( #205, #24, #204 ) ) REPRESENTATION_CONTEXT ( 'NONE', 'WORKASPACE' ) );
#241 = AXIS2_PLACEMENT_3D ( 'NONE', #47, #93, #72 ) ;
#242 = APPLICATION_PROTOCOL_DEFINITION ( 'international standard', 'config_control_design', 1994, #34 ) ;
#243 = LINE ( 'NONE', #66, #38 ) ;
#244 = DIRECTION ( 'NONE',  ( 1.000000000000000000, 0.000000000000000000, 0.000000000000000000 ) ) ;
#245 = APPROVAL_ROLE ( '' ) ;
#246 = ORIENTED_EDGE ( 'NONE', *, *, #173, .T. ) ;
#247 = DIRECTION ( 'NONE',  ( -0.000000000000000000, -0.000000000000000000, -1.000000000000000000 ) ) ;
#248 = DATE_TIME_ROLE ( 'classification_date' ) ;
#249 = ADVANCED_FACE ( 'NONE', ( #157 ), #58, .T. ) ;
#250 = LOCAL_TIME ( 12, 56, 21.00000000000000000, #172 ) ;
#251 = PRODUCT_RELATED_PRODUCT_CATEGORY ( 'detail', '', ( #142 ) ) ;
#252 = ORIENTED_EDGE ( 'NONE', *, *, #173, .F. ) ;
#253 = ORIENTED_EDGE ( 'NONE', *, *, #59, .T. ) ;
#254 = PERSON_AND_ORGANIZATION_ROLE ( 'design_owner' ) ;
#255 = PLANE ( 'NONE',  #99 ) ;
ENDSEC;
END-ISO-10303-21;
