ISO-10303-21;
HEADER;
FILE_DESCRIPTION (( 'STEP AP203' ),
    '1' );
FILE_NAME ('c218.STEP',
    '2023-02-12T11:04:26',
    ( '' ),
    ( '' ),
    'SwSTEP 2.0',
    'SolidWorks 2019',
    '' );
FILE_SCHEMA (( 'CONFIG_CONTROL_DESIGN' ));
ENDSEC;

DATA;
#1 =( NAMED_UNIT ( * ) PLANE_ANGLE_UNIT ( ) SI_UNIT ( $, .RADIAN. ) );
#2 = ADVANCED_FACE ( 'NONE', ( #105 ), #97, .T. ) ;
#3 = DIRECTION ( 'NONE',  ( 1.000000000000000000, 0.000000000000000000, -0.000000000000000000 ) ) ;
#4 = APPLICATION_PROTOCOL_DEFINITION ( 'international standard', 'config_control_design', 1994, #24 ) ;
#5 = DIRECTION ( 'NONE',  ( 0.000000000000000000, 0.000000000000000000, 1.000000000000000000 ) ) ;
#6 = AXIS2_PLACEMENT_3D ( 'NONE', #204, #169, #37 ) ;
#7 = CARTESIAN_POINT ( 'NONE',  ( 0.000000000000000000, 0.000000000000000000, 7.000000000000000000 ) ) ;
#8 =( NAMED_UNIT ( * ) SI_UNIT ( $, .STERADIAN. ) SOLID_ANGLE_UNIT ( ) );
#9 = EDGE_CURVE ( 'NONE', #251, #18, #67, .T. ) ;
#10 = ORIENTED_EDGE ( 'NONE', *, *, #194, .F. ) ;
#11 = PRODUCT_RELATED_PRODUCT_CATEGORY ( 'detail', '', ( #161 ) ) ;
#12 = EDGE_LOOP ( 'NONE', ( #20, #59, #234, #17 ) ) ;
#13 = AXIS2_PLACEMENT_3D ( 'NONE', #203, #89, #206 ) ;
#14 = SHAPE_DEFINITION_REPRESENTATION ( #65, #104 ) ;
#15 = CALENDAR_DATE ( 2023, 12, 2 ) ;
#16 = CARTESIAN_POINT ( 'NONE',  ( 0.000000000000000000, 0.000000000000000000, 0.000000000000000000 ) ) ;
#17 = ORIENTED_EDGE ( 'NONE', *, *, #160, .F. ) ;
#18 = VERTEX_POINT ( 'NONE', #177 ) ;
#19 = PERSON_AND_ORGANIZATION ( #210, #200 ) ;
#20 = ORIENTED_EDGE ( 'NONE', *, *, #175, .F. ) ;
#21 = AXIS2_PLACEMENT_3D ( 'NONE', #173, #93, #162 ) ;
#22 = CC_DESIGN_SECURITY_CLASSIFICATION ( #255, ( #202 ) ) ;
#23 = APPROVAL ( #249, 'NEURÈENÝ' ) ;
#24 = APPLICATION_CONTEXT ( 'configuration controlled 3d designs of mechanical parts and assemblies' ) ;
#25 = AXIS2_PLACEMENT_3D ( 'NONE', #214, #183, #90 ) ;
#26 = CARTESIAN_POINT ( 'NONE',  ( 0.000000000000000000, 0.000000000000000000, 0.000000000000000000 ) ) ;
#27 = APPROVAL_PERSON_ORGANIZATION ( #98, #78, #254 ) ;
#28 = CARTESIAN_POINT ( 'NONE',  ( 0.000000000000000000, 0.000000000000000000, 1000.000000000000000 ) ) ;
#29 = CLOSED_SHELL ( 'NONE', ( #34, #2, #108, #222, #247, #110, #147 ) ) ;
#30 = DIRECTION ( 'NONE',  ( 1.000000000000000000, 0.000000000000000000, 0.000000000000000000 ) ) ;
#31 = DATE_TIME_ROLE ( 'classification_date' ) ;
#32 = DIRECTION ( 'NONE',  ( 0.000000000000000000, 0.000000000000000000, 1.000000000000000000 ) ) ;
#33 = EDGE_LOOP ( 'NONE', ( #167, #225, #144, #181 ) ) ;
#34 = ADVANCED_FACE ( 'NONE', ( #165 ), #68, .T. ) ;
#35 = AXIS2_PLACEMENT_3D ( 'NONE', #26, #64, #138 ) ;
#36 = EDGE_LOOP ( 'NONE', ( #182, #197 ) ) ;
#37 = DIRECTION ( 'NONE',  ( 1.000000000000000000, 0.000000000000000000, 0.000000000000000000 ) ) ;
#38 = AXIS2_PLACEMENT_3D ( 'NONE', #127, #250, #156 ) ;
#39 = APPLICATION_CONTEXT ( 'configuration controlled 3d designs of mechanical parts and assemblies' ) ;
#40 = DIRECTION ( 'NONE',  ( 0.000000000000000000, 0.000000000000000000, 1.000000000000000000 ) ) ;
#41 = DIRECTION ( 'NONE',  ( -0.000000000000000000, -0.000000000000000000, -1.000000000000000000 ) ) ;
#42 = FACE_OUTER_BOUND ( 'NONE', #148, .T. ) ;
#43 = APPROVAL_ROLE ( '' ) ;
#44 = EDGE_CURVE ( 'NONE', #244, #224, #54, .T. ) ;
#45 = EDGE_CURVE ( 'NONE', #55, #199, #189, .T. ) ;
#46 = CALENDAR_DATE ( 2023, 12, 2 ) ;
#47 = PERSON_AND_ORGANIZATION ( #210, #200 ) ;
#48 = AXIS2_PLACEMENT_3D ( 'NONE', #240, #32, #185 ) ;
#49 = DIRECTION ( 'NONE',  ( 1.000000000000000000, 0.000000000000000000, 0.000000000000000000 ) ) ;
#50 = MANIFOLD_SOLID_BREP ( 'Pøidat vysunutím3', #29 ) ;
#51 = CARTESIAN_POINT ( 'NONE',  ( 0.000000000000000000, 0.000000000000000000, 7.000000000000000000 ) ) ;
#52 = PLANE ( 'NONE',  #48 ) ;
#53 = VECTOR ( 'NONE', #76, 1000.000000000000000 ) ;
#54 = CIRCLE ( 'NONE', #25, 9.000000000000000000 ) ;
#55 = VERTEX_POINT ( 'NONE', #131 ) ;
#56 = SECURITY_CLASSIFICATION_LEVEL ( 'unclassified' ) ;
#57 = ORIENTED_EDGE ( 'NONE', *, *, #44, .T. ) ;
#58 = DIRECTION ( 'NONE',  ( 1.000000000000000000, 0.000000000000000000, 0.000000000000000000 ) ) ;
#59 = ORIENTED_EDGE ( 'NONE', *, *, #88, .T. ) ;
#60 = CARTESIAN_POINT ( 'NONE',  ( 0.000000000000000000, 0.000000000000000000, 0.000000000000000000 ) ) ;
#61 = CC_DESIGN_DATE_AND_TIME_ASSIGNMENT ( #186, #192, ( #119 ) ) ;
#62 = CC_DESIGN_PERSON_AND_ORGANIZATION_ASSIGNMENT ( #201, #142, ( #202 ) ) ;
#63 = AXIS2_PLACEMENT_3D ( 'NONE', #7, #100, #212 ) ;
#64 = DIRECTION ( 'NONE',  ( 0.000000000000000000, 0.000000000000000000, 1.000000000000000000 ) ) ;
#65 = PRODUCT_DEFINITION_SHAPE ( 'NONE', 'NONE',  #119 ) ;
#66 = DIRECTION ( 'NONE',  ( 1.000000000000000000, 0.000000000000000000, 0.000000000000000000 ) ) ;
#67 = CIRCLE ( 'NONE', #113, 6.000000000000000888 ) ;
#68 = CYLINDRICAL_SURFACE ( 'NONE', #168, 6.000000000000000888 ) ;
#69 = DIRECTION ( 'NONE',  ( -1.000000000000000000, 0.000000000000000000, 0.000000000000000000 ) ) ;
#70 = ORIENTED_EDGE ( 'NONE', *, *, #9, .T. ) ;
#71 = APPROVAL_ROLE ( '' ) ;
#72 = APPLICATION_PROTOCOL_DEFINITION ( 'international standard', 'config_control_design', 1994, #39 ) ;
#73 = CARTESIAN_POINT ( 'NONE',  ( -6.000000000000000888, 0.000000000000000000, 1000.000000000000000 ) ) ;
#74 = PERSON_AND_ORGANIZATION_ROLE ( 'creator' ) ;
#75 = CC_DESIGN_PERSON_AND_ORGANIZATION_ASSIGNMENT ( #19, #123, ( #255 ) ) ;
#76 = DIRECTION ( 'NONE',  ( -0.000000000000000000, -0.000000000000000000, -1.000000000000000000 ) ) ;
#77 = EDGE_LOOP ( 'NONE', ( #124, #217 ) ) ;
#78 = APPROVAL ( #92, 'NEURÈENÝ' ) ;
#79 = VECTOR ( 'NONE', #91, 1000.000000000000000 ) ;
#80 = CIRCLE ( 'NONE', #216, 9.000000000000000000 ) ;
#81 = EDGE_LOOP ( 'NONE', ( #238, #151 ) ) ;
#82 = EDGE_CURVE ( 'NONE', #55, #18, #170, .T. ) ;
#83 = LOCAL_TIME ( 12, 4, 26.00000000000000000, #145 ) ;
#84 = COORDINATED_UNIVERSAL_TIME_OFFSET ( 1, 0, .AHEAD. ) ;
#85 = DATE_AND_TIME ( #106, #83 ) ;
#86 = CARTESIAN_POINT ( 'NONE',  ( -9.000000000000000000, 0.000000000000000000, 7.000000000000000000 ) ) ;
#87 = ORIENTED_EDGE ( 'NONE', *, *, #82, .F. ) ;
#88 = EDGE_CURVE ( 'NONE', #152, #224, #227, .T. ) ;
#89 = DIRECTION ( 'NONE',  ( 0.000000000000000000, 0.000000000000000000, 1.000000000000000000 ) ) ;
#90 = DIRECTION ( 'NONE',  ( 1.000000000000000000, 0.000000000000000000, 0.000000000000000000 ) ) ;
#91 = DIRECTION ( 'NONE',  ( -0.000000000000000000, -0.000000000000000000, -1.000000000000000000 ) ) ;
#92 = APPROVAL_STATUS ( 'not_yet_approved' ) ;
#93 = DIRECTION ( 'NONE',  ( -0.000000000000000000, -0.000000000000000000, -1.000000000000000000 ) ) ;
#94 = LOCAL_TIME ( 12, 4, 26.00000000000000000, #159 ) ;
#95 = DATE_AND_TIME ( #190, #115 ) ;
#96 = CYLINDRICAL_SURFACE ( 'NONE', #63, 9.000000000000000000 ) ;
#97 = CYLINDRICAL_SURFACE ( 'NONE', #21, 9.000000000000000000 ) ;
#98 = PERSON_AND_ORGANIZATION ( #210, #200 ) ;
#99 = DIRECTION ( 'NONE',  ( 0.000000000000000000, 0.000000000000000000, 1.000000000000000000 ) ) ;
#100 = DIRECTION ( 'NONE',  ( -0.000000000000000000, -0.000000000000000000, -1.000000000000000000 ) ) ;
#101 = VERTEX_POINT ( 'NONE', #86 ) ;
#102 = CYLINDRICAL_SURFACE ( 'NONE', #195, 6.000000000000000888 ) ;
#103 = PERSON_AND_ORGANIZATION ( #210, #200 ) ;
#104 = ADVANCED_BREP_SHAPE_REPRESENTATION ( 'c218', ( #50, #35 ), #132 ) ;
#105 = FACE_OUTER_BOUND ( 'NONE', #12, .T. ) ;
#106 = CALENDAR_DATE ( 2023, 12, 2 ) ;
#107 = CARTESIAN_POINT ( 'NONE',  ( 9.000000000000000000, 1.102182119232617714E-15, 7.000000000000000000 ) ) ;
#108 = ADVANCED_FACE ( 'NONE', ( #42 ), #96, .T. ) ;
#109 = LINE ( 'NONE', #226, #53 ) ;
#110 = ADVANCED_FACE ( 'NONE', ( #215 ), #102, .T. ) ;
#111 = CARTESIAN_POINT ( 'NONE',  ( -6.000000000000000888, 0.000000000000000000, 1000.000000000000000 ) ) ;
#112 = CALENDAR_DATE ( 2023, 12, 2 ) ;
#113 = AXIS2_PLACEMENT_3D ( 'NONE', #137, #99, #66 ) ;
#114 = COORDINATED_UNIVERSAL_TIME_OFFSET ( 1, 0, .AHEAD. ) ;
#115 = LOCAL_TIME ( 12, 4, 26.00000000000000000, #114 ) ;
#116 = COORDINATED_UNIVERSAL_TIME_OFFSET ( 1, 0, .AHEAD. ) ;
#117 = EDGE_CURVE ( 'NONE', #101, #152, #80, .T. ) ;
#118 = VECTOR ( 'NONE', #41, 1000.000000000000000 ) ;
#119 = PRODUCT_DEFINITION ( 'NEZNÁMÝ', '', #202, #221 ) ;
#120 = CIRCLE ( 'NONE', #13, 9.000000000000000000 ) ;
#121 = DIRECTION ( 'NONE',  ( -1.000000000000000000, 0.000000000000000000, 0.000000000000000000 ) ) ;
#122 = APPROVAL_PERSON_ORGANIZATION ( #103, #23, #71 ) ;
#123 = PERSON_AND_ORGANIZATION_ROLE ( 'classification_officer' ) ;
#124 = ORIENTED_EDGE ( 'NONE', *, *, #44, .F. ) ;
#125 = APPROVAL ( #231, 'NEURÈENÝ' ) ;
#126 = EDGE_CURVE ( 'NONE', #199, #55, #198, .T. ) ;
#127 = CARTESIAN_POINT ( 'NONE',  ( 0.000000000000000000, 0.000000000000000000, 7.000000000000000000 ) ) ;
#128 = APPROVAL_DATE_TIME ( #95, #125 ) ;
#129 = PERSON_AND_ORGANIZATION ( #210, #200 ) ;
#130 = ORIENTED_EDGE ( 'NONE', *, *, #126, .F. ) ;
#131 = CARTESIAN_POINT ( 'NONE',  ( 6.000000000000000888, 7.347880794884120722E-16, 1000.000000000000000 ) ) ;
#132 =( GEOMETRIC_REPRESENTATION_CONTEXT ( 3 ) GLOBAL_UNCERTAINTY_ASSIGNED_CONTEXT ( ( #172 ) ) GLOBAL_UNIT_ASSIGNED_CONTEXT ( ( #232, #1, #8 ) ) REPRESENTATION_CONTEXT ( 'NONE', 'WORKASPACE' ) );
#133 = CC_DESIGN_APPROVAL ( #78, ( #119 ) ) ;
#134 = CARTESIAN_POINT ( 'NONE',  ( 6.000000000000000888, 7.347880794884120722E-16, 1000.000000000000000 ) ) ;
#135 = APPROVAL_DATE_TIME ( #155, #78 ) ;
#136 = PERSON_AND_ORGANIZATION ( #210, #200 ) ;
#137 = CARTESIAN_POINT ( 'NONE',  ( 0.000000000000000000, 0.000000000000000000, 7.000000000000000000 ) ) ;
#138 = DIRECTION ( 'NONE',  ( 1.000000000000000000, 0.000000000000000000, 0.000000000000000000 ) ) ;
#139 = FACE_OUTER_BOUND ( 'NONE', #77, .T. ) ;
#140 = DIRECTION ( 'NONE',  ( -0.000000000000000000, -0.000000000000000000, -1.000000000000000000 ) ) ;
#141 = APPROVAL_PERSON_ORGANIZATION ( #171, #125, #43 ) ;
#142 = PERSON_AND_ORGANIZATION_ROLE ( 'design_supplier' ) ;
#143 = DIRECTION ( 'NONE',  ( 0.000000000000000000, 0.000000000000000000, 1.000000000000000000 ) ) ;
#144 = ORIENTED_EDGE ( 'NONE', *, *, #194, .T. ) ;
#145 = COORDINATED_UNIVERSAL_TIME_OFFSET ( 1, 0, .AHEAD. ) ;
#146 = FACE_BOUND ( 'NONE', #242, .T. ) ;
#147 = ADVANCED_FACE ( 'NONE', ( #219 ), #52, .T. ) ;
#148 = EDGE_LOOP ( 'NONE', ( #153, #174, #179, #57 ) ) ;
#149 = CARTESIAN_POINT ( 'NONE',  ( 9.000000000000000000, 1.102182119232617714E-15, 0.000000000000000000 ) ) ;
#150 = LOCAL_TIME ( 12, 4, 26.00000000000000000, #116 ) ;
#151 = ORIENTED_EDGE ( 'NONE', *, *, #175, .T. ) ;
#152 = VERTEX_POINT ( 'NONE', #107 ) ;
#153 = ORIENTED_EDGE ( 'NONE', *, *, #88, .F. ) ;
#154 = DIRECTION ( 'NONE',  ( 0.000000000000000000, 0.000000000000000000, 1.000000000000000000 ) ) ;
#155 = DATE_AND_TIME ( #46, #94 ) ;
#156 = DIRECTION ( 'NONE',  ( 1.000000000000000000, 0.000000000000000000, -0.000000000000000000 ) ) ;
#157 = DIRECTION ( 'NONE',  ( -0.000000000000000000, -0.000000000000000000, -1.000000000000000000 ) ) ;
#158 = PERSON_AND_ORGANIZATION_ROLE ( 'design_owner' ) ;
#159 = COORDINATED_UNIVERSAL_TIME_OFFSET ( 1, 0, .AHEAD. ) ;
#160 = EDGE_CURVE ( 'NONE', #101, #244, #109, .T. ) ;
#161 = PRODUCT ( 'c218', 'c218', '', ( #208 ) ) ;
#162 = DIRECTION ( 'NONE',  ( -1.000000000000000000, 0.000000000000000000, 0.000000000000000000 ) ) ;
#163 = DIRECTION ( 'NONE',  ( 0.000000000000000000, 0.000000000000000000, 1.000000000000000000 ) ) ;
#164 = EDGE_LOOP ( 'NONE', ( #87, #130, #246, #70 ) ) ;
#165 = FACE_OUTER_BOUND ( 'NONE', #33, .T. ) ;
#166 = CC_DESIGN_PERSON_AND_ORGANIZATION_ASSIGNMENT ( #47, #158, ( #161 ) ) ;
#167 = ORIENTED_EDGE ( 'NONE', *, *, #45, .F. ) ;
#168 = AXIS2_PLACEMENT_3D ( 'NONE', #235, #140, #121 ) ;
#169 = DIRECTION ( 'NONE',  ( 0.000000000000000000, 0.000000000000000000, 1.000000000000000000 ) ) ;
#170 = LINE ( 'NONE', #134, #248 ) ;
#171 = PERSON_AND_ORGANIZATION ( #210, #200 ) ;
#172 = UNCERTAINTY_MEASURE_WITH_UNIT (LENGTH_MEASURE( 1.000000000000000082E-05 ), #232, 'distance_accuracy_value', 'NONE');
#173 = CARTESIAN_POINT ( 'NONE',  ( 0.000000000000000000, 0.000000000000000000, 7.000000000000000000 ) ) ;
#174 = ORIENTED_EDGE ( 'NONE', *, *, #117, .F. ) ;
#175 = EDGE_CURVE ( 'NONE', #152, #101, #120, .T. ) ;
#176 = CARTESIAN_POINT ( 'NONE',  ( 0.000000000000000000, 0.000000000000000000, 1000.000000000000000 ) ) ;
#177 = CARTESIAN_POINT ( 'NONE',  ( 6.000000000000000888, 7.347880794884120722E-16, 7.000000000000000000 ) ) ;
#178 = DIRECTION ( 'NONE',  ( -0.000000000000000000, -0.000000000000000000, -1.000000000000000000 ) ) ;
#179 = ORIENTED_EDGE ( 'NONE', *, *, #160, .T. ) ;
#180 = CIRCLE ( 'NONE', #184, 9.000000000000000000 ) ;
#181 = ORIENTED_EDGE ( 'NONE', *, *, #207, .F. ) ;
#182 = ORIENTED_EDGE ( 'NONE', *, *, #126, .T. ) ;
#183 = DIRECTION ( 'NONE',  ( 0.000000000000000000, 0.000000000000000000, 1.000000000000000000 ) ) ;
#184 = AXIS2_PLACEMENT_3D ( 'NONE', #16, #40, #58 ) ;
#185 = DIRECTION ( 'NONE',  ( 1.000000000000000000, 0.000000000000000000, -0.000000000000000000 ) ) ;
#186 = DATE_AND_TIME ( #112, #150 ) ;
#187 = CARTESIAN_POINT ( 'NONE',  ( 9.000000000000000000, 1.102182119232617714E-15, 7.000000000000000000 ) ) ;
#188 = EDGE_CURVE ( 'NONE', #224, #244, #180, .T. ) ;
#189 = CIRCLE ( 'NONE', #241, 6.000000000000000888 ) ;
#190 = CALENDAR_DATE ( 2023, 12, 2 ) ;
#191 = CC_DESIGN_APPROVAL ( #23, ( #255 ) ) ;
#192 = DATE_TIME_ROLE ( 'creation_date' ) ;
#193 = CC_DESIGN_PERSON_AND_ORGANIZATION_ASSIGNMENT ( #129, #74, ( #202 ) ) ;
#194 = EDGE_CURVE ( 'NONE', #18, #251, #218, .T. ) ;
#195 = AXIS2_PLACEMENT_3D ( 'NONE', #28, #178, #69 ) ;
#196 = DATE_AND_TIME ( #15, #211 ) ;
#197 = ORIENTED_EDGE ( 'NONE', *, *, #45, .T. ) ;
#198 = CIRCLE ( 'NONE', #223, 6.000000000000000888 ) ;
#199 = VERTEX_POINT ( 'NONE', #111 ) ;
#200 = ORGANIZATION ( 'NEURÈENÝ', 'NEURÈENÝ', '' ) ;
#201 = PERSON_AND_ORGANIZATION ( #210, #200 ) ;
#202 = PRODUCT_DEFINITION_FORMATION_WITH_SPECIFIED_SOURCE ( 'LIBOVOLNÝ', '', #161, .NOT_KNOWN. ) ;
#203 = CARTESIAN_POINT ( 'NONE',  ( 0.000000000000000000, 0.000000000000000000, 7.000000000000000000 ) ) ;
#204 = CARTESIAN_POINT ( 'NONE',  ( 0.000000000000000000, 0.000000000000000000, 7.000000000000000000 ) ) ;
#205 = PERSON_AND_ORGANIZATION_ROLE ( 'creator' ) ;
#206 = DIRECTION ( 'NONE',  ( 1.000000000000000000, 0.000000000000000000, 0.000000000000000000 ) ) ;
#207 = EDGE_CURVE ( 'NONE', #199, #251, #243, .T. ) ;
#208 = MECHANICAL_CONTEXT ( 'NONE', #39, 'mechanical' ) ;
#209 = PLANE ( 'NONE',  #213 ) ;
#210 = PERSON ( 'NEURÈENÝ', 'NEURÈENÝ', 'NEURÈENÝ', ('NEURÈENÝ'), ('NEURÈENÝ'), ('NEURÈENÝ') ) ;
#211 = LOCAL_TIME ( 12, 4, 26.00000000000000000, #84 ) ;
#212 = DIRECTION ( 'NONE',  ( -1.000000000000000000, 0.000000000000000000, 0.000000000000000000 ) ) ;
#213 = AXIS2_PLACEMENT_3D ( 'NONE', #60, #5, #3 ) ;
#214 = CARTESIAN_POINT ( 'NONE',  ( 0.000000000000000000, 0.000000000000000000, 0.000000000000000000 ) ) ;
#215 = FACE_OUTER_BOUND ( 'NONE', #164, .T. ) ;
#216 = AXIS2_PLACEMENT_3D ( 'NONE', #51, #143, #30 ) ;
#217 = ORIENTED_EDGE ( 'NONE', *, *, #188, .F. ) ;
#218 = CIRCLE ( 'NONE', #6, 6.000000000000000888 ) ;
#219 = FACE_OUTER_BOUND ( 'NONE', #36, .T. ) ;
#220 = ORIENTED_EDGE ( 'NONE', *, *, #9, .F. ) ;
#221 = DESIGN_CONTEXT ( 'detailed design', #24, 'design' ) ;
#222 = ADVANCED_FACE ( 'NONE', ( #146, #245 ), #253, .T. ) ;
#223 = AXIS2_PLACEMENT_3D ( 'NONE', #176, #163, #49 ) ;
#224 = VERTEX_POINT ( 'NONE', #149 ) ;
#225 = ORIENTED_EDGE ( 'NONE', *, *, #82, .T. ) ;
#226 = CARTESIAN_POINT ( 'NONE',  ( -9.000000000000000000, 0.000000000000000000, 7.000000000000000000 ) ) ;
#227 = LINE ( 'NONE', #187, #118 ) ;
#228 = CARTESIAN_POINT ( 'NONE',  ( -9.000000000000000000, 0.000000000000000000, 0.000000000000000000 ) ) ;
#229 = CC_DESIGN_DATE_AND_TIME_ASSIGNMENT ( #196, #31, ( #255 ) ) ;
#230 = DIRECTION ( 'NONE',  ( 1.000000000000000000, 0.000000000000000000, 0.000000000000000000 ) ) ;
#231 = APPROVAL_STATUS ( 'not_yet_approved' ) ;
#232 =( LENGTH_UNIT ( ) NAMED_UNIT ( * ) SI_UNIT ( .MILLI., .METRE. ) );
#233 = CARTESIAN_POINT ( 'NONE',  ( -6.000000000000000888, 0.000000000000000000, 7.000000000000000000 ) ) ;
#234 = ORIENTED_EDGE ( 'NONE', *, *, #188, .T. ) ;
#235 = CARTESIAN_POINT ( 'NONE',  ( 0.000000000000000000, 0.000000000000000000, 1000.000000000000000 ) ) ;
#236 = APPROVAL_DATE_TIME ( #85, #23 ) ;
#237 = CC_DESIGN_PERSON_AND_ORGANIZATION_ASSIGNMENT ( #136, #205, ( #119 ) ) ;
#238 = ORIENTED_EDGE ( 'NONE', *, *, #117, .T. ) ;
#239 = CC_DESIGN_APPROVAL ( #125, ( #202 ) ) ;
#240 = CARTESIAN_POINT ( 'NONE',  ( 0.000000000000000000, 0.000000000000000000, 1000.000000000000000 ) ) ;
#241 = AXIS2_PLACEMENT_3D ( 'NONE', #252, #154, #230 ) ;
#242 = EDGE_LOOP ( 'NONE', ( #220, #10 ) ) ;
#243 = LINE ( 'NONE', #73, #79 ) ;
#244 = VERTEX_POINT ( 'NONE', #228 ) ;
#245 = FACE_OUTER_BOUND ( 'NONE', #81, .T. ) ;
#246 = ORIENTED_EDGE ( 'NONE', *, *, #207, .T. ) ;
#247 = ADVANCED_FACE ( 'NONE', ( #139 ), #209, .F. ) ;
#248 = VECTOR ( 'NONE', #157, 1000.000000000000000 ) ;
#249 = APPROVAL_STATUS ( 'not_yet_approved' ) ;
#250 = DIRECTION ( 'NONE',  ( 0.000000000000000000, 0.000000000000000000, 1.000000000000000000 ) ) ;
#251 = VERTEX_POINT ( 'NONE', #233 ) ;
#252 = CARTESIAN_POINT ( 'NONE',  ( 0.000000000000000000, 0.000000000000000000, 1000.000000000000000 ) ) ;
#253 = PLANE ( 'NONE',  #38 ) ;
#254 = APPROVAL_ROLE ( '' ) ;
#255 = SECURITY_CLASSIFICATION ( '', '', #56 ) ;
ENDSEC;
END-ISO-10303-21;
