ISO-10303-21;
HEADER;
FILE_DESCRIPTION (( 'STEP AP203' ),
    '1' );
FILE_NAME ('eca1.STEP',
    '2022-08-25T19:27:36',
    ( '' ),
    ( '' ),
    'SwSTEP 2.0',
    'SolidWorks 2019',
    '' );
FILE_SCHEMA (( 'CONFIG_CONTROL_DESIGN' ));
ENDSEC;

DATA;
#1 = ORIENTED_EDGE ( 'NONE', *, *, #110, .F. ) ;
#2 = CIRCLE ( 'NONE', #275, 10.00000000000000000 ) ;
#3 = EDGE_CURVE ( 'NONE', #36, #169, #230, .T. ) ;
#4 = ORIENTED_EDGE ( 'NONE', *, *, #237, .T. ) ;
#5 = DIRECTION ( 'NONE',  ( 0.000000000000000000, 0.000000000000000000, 1.000000000000000000 ) ) ;
#6 = MANIFOLD_SOLID_BREP ( 'Zkosení1', #311 ) ;
#7 = EDGE_LOOP ( 'NONE', ( #149, #4 ) ) ;
#8 = DIRECTION ( 'NONE',  ( 1.000000000000000000, 0.000000000000000000, 0.000000000000000000 ) ) ;
#9 = VECTOR ( 'NONE', #243, 1000.000000000000000 ) ;
#10 = AXIS2_PLACEMENT_3D ( 'NONE', #247, #163, #248 ) ;
#11 = AXIS2_PLACEMENT_3D ( 'NONE', #382, #49, #46 ) ;
#12 = CARTESIAN_POINT ( 'NONE',  ( 79.00000000000000000, 0.000000000000000000, 10.00000000000000000 ) ) ;
#13 = EDGE_CURVE ( 'NONE', #213, #263, #177, .T. ) ;
#14 = CC_DESIGN_PERSON_AND_ORGANIZATION_ASSIGNMENT ( #112, #268, ( #166 ) ) ;
#15 = DIRECTION ( 'NONE',  ( 0.000000000000000000, 0.000000000000000000, -1.000000000000000000 ) ) ;
#16 = CARTESIAN_POINT ( 'NONE',  ( 78.49999999999998579, 1.619044300812758254E-15, -13.22049999999999947 ) ) ;
#17 = ADVANCED_FACE ( 'NONE', ( #87 ), #190, .T. ) ;
#18 = DIRECTION ( 'NONE',  ( -1.000000000000000000, -0.000000000000000000, -0.000000000000000000 ) ) ;
#19 =( LENGTH_UNIT ( ) NAMED_UNIT ( * ) SI_UNIT ( .MILLI., .METRE. ) );
#20 = DIRECTION ( 'NONE',  ( 1.000000000000000000, 0.000000000000000000, 0.000000000000000000 ) ) ;
#21 = PERSON_AND_ORGANIZATION ( #142, #260 ) ;
#22 = CIRCLE ( 'NONE', #47, 12.72049999999999592 ) ;
#23 = LOCAL_TIME ( 21, 27, 36.00000000000000000, #262 ) ;
#24 = PERSON_AND_ORGANIZATION_ROLE ( 'design_owner' ) ;
#25 = EDGE_LOOP ( 'NONE', ( #204, #61, #95, #127 ) ) ;
#26 = EDGE_LOOP ( 'NONE', ( #1, #211, #362, #360 ) ) ;
#27 = DATE_AND_TIME ( #176, #397 ) ;
#28 = DIRECTION ( 'NONE',  ( 0.000000000000000000, 0.000000000000000000, 1.000000000000000000 ) ) ;
#29 = COORDINATED_UNIVERSAL_TIME_OFFSET ( 1, 0, .AHEAD. ) ;
#30 = AXIS2_PLACEMENT_3D ( 'NONE', #137, #346, #321 ) ;
#31 = ORIENTED_EDGE ( 'NONE', *, *, #309, .F. ) ;
#32 = DIRECTION ( 'NONE',  ( -1.000000000000000000, 0.000000000000000000, 0.000000000000000000 ) ) ;
#33 = EDGE_CURVE ( 'NONE', #236, #253, #2, .T. ) ;
#34 = ORIENTED_EDGE ( 'NONE', *, *, #237, .F. ) ;
#35 = DIRECTION ( 'NONE',  ( -1.000000000000000000, -0.000000000000000000, -0.000000000000000000 ) ) ;
#36 = VERTEX_POINT ( 'NONE', #115 ) ;
#37 = VERTEX_POINT ( 'NONE', #202 ) ;
#38 = CARTESIAN_POINT ( 'NONE',  ( 78.49999999999998579, 0.000000000000000000, 0.000000000000000000 ) ) ;
#39 = DIRECTION ( 'NONE',  ( 0.000000000000000000, 0.000000000000000000, -1.000000000000000000 ) ) ;
#40 = AXIS2_PLACEMENT_3D ( 'NONE', #189, #134, #128 ) ;
#41 = CIRCLE ( 'NONE', #305, 12.97049999999999947 ) ;
#42 = CARTESIAN_POINT ( 'NONE',  ( 24.00000000000000711, 0.000000000000000000, 13.22049999999999947 ) ) ;
#43 = CARTESIAN_POINT ( 'NONE',  ( 79.00000000000000000, 0.000000000000000000, 0.000000000000000000 ) ) ;
#44 = DIRECTION ( 'NONE',  ( 1.000000000000000000, 0.000000000000000000, 0.000000000000000000 ) ) ;
#45 = EDGE_CURVE ( 'NONE', #253, #116, #145, .T. ) ;
#46 = DIRECTION ( 'NONE',  ( 0.000000000000000000, 0.000000000000000000, 1.000000000000000000 ) ) ;
#47 = AXIS2_PLACEMENT_3D ( 'NONE', #365, #90, #207 ) ;
#48 = AXIS2_PLACEMENT_3D ( 'NONE', #43, #379, #348 ) ;
#49 = DIRECTION ( 'NONE',  ( -1.000000000000000000, -0.000000000000000000, -0.000000000000000000 ) ) ;
#50 = ORIENTED_EDGE ( 'NONE', *, *, #159, .T. ) ;
#51 = DIRECTION ( 'NONE',  ( 1.000000000000000000, 0.000000000000000000, 0.000000000000000000 ) ) ;
#52 = CALENDAR_DATE ( 2022, 25, 8 ) ;
#53 =( NAMED_UNIT ( * ) SI_UNIT ( $, .STERADIAN. ) SOLID_ANGLE_UNIT ( ) );
#54 = DATE_TIME_ROLE ( 'classification_date' ) ;
#55 = DIRECTION ( 'NONE',  ( 0.000000000000000000, 0.000000000000000000, 1.000000000000000000 ) ) ;
#56 = ORIENTED_EDGE ( 'NONE', *, *, #110, .T. ) ;
#57 = MECHANICAL_CONTEXT ( 'NONE', #100, 'mechanical' ) ;
#58 = DIRECTION ( 'NONE',  ( 0.7071067811865439090, 8.659560562354978464E-17, 0.7071067811865512365 ) ) ;
#59 = APPROVAL_DATE_TIME ( #171, #219 ) ;
#60 = EDGE_CURVE ( 'NONE', #236, #267, #152, .T. ) ;
#61 = ORIENTED_EDGE ( 'NONE', *, *, #370, .T. ) ;
#62 = CARTESIAN_POINT ( 'NONE',  ( 23.50000000000000355, 0.000000000000000000, -12.72049999999999059 ) ) ;
#63 = FACE_OUTER_BOUND ( 'NONE', #66, .T. ) ;
#64 = ORIENTED_EDGE ( 'NONE', *, *, #153, .F. ) ;
#65 = CIRCLE ( 'NONE', #11, 12.97049999999999947 ) ;
#66 = EDGE_LOOP ( 'NONE', ( #146, #331, #64, #328 ) ) ;
#67 = CARTESIAN_POINT ( 'NONE',  ( 0.000000000000000000, 0.000000000000000000, 13.22049999999999947 ) ) ;
#68 = DIRECTION ( 'NONE',  ( -0.7071067811865549002, 0.000000000000000000, 0.7071067811865401342 ) ) ;
#69 = DIRECTION ( 'NONE',  ( -1.000000000000000000, -0.000000000000000000, -0.000000000000000000 ) ) ;
#70 = CC_DESIGN_DATE_AND_TIME_ASSIGNMENT ( #229, #54, ( #301 ) ) ;
#71 = PLANE ( 'NONE',  #195 ) ;
#72 = EDGE_CURVE ( 'NONE', #367, #375, #258, .T. ) ;
#73 = DIRECTION ( 'NONE',  ( 0.000000000000000000, 0.000000000000000000, -1.000000000000000000 ) ) ;
#74 = AXIS2_PLACEMENT_3D ( 'NONE', #272, #369, #123 ) ;
#75 = CC_DESIGN_APPROVAL ( #219, ( #356 ) ) ;
#76 = ORIENTED_EDGE ( 'NONE', *, *, #168, .F. ) ;
#77 = DIRECTION ( 'NONE',  ( 0.000000000000000000, 0.000000000000000000, -1.000000000000000000 ) ) ;
#78 = EDGE_CURVE ( 'NONE', #37, #187, #22, .T. ) ;
#79 = APPROVAL_ROLE ( '' ) ;
#80 = ORIENTED_EDGE ( 'NONE', *, *, #45, .F. ) ;
#81 = COORDINATED_UNIVERSAL_TIME_OFFSET ( 1, 0, .AHEAD. ) ;
#82 = CARTESIAN_POINT ( 'NONE',  ( 79.00000000000000000, 0.000000000000000000, 0.000000000000000000 ) ) ;
#83 = EDGE_LOOP ( 'NONE', ( #294, #340, #154, #80 ) ) ;
#84 = CC_DESIGN_PERSON_AND_ORGANIZATION_ASSIGNMENT ( #292, #24, ( #295 ) ) ;
#85 =( GEOMETRIC_REPRESENTATION_CONTEXT ( 3 ) GLOBAL_UNCERTAINTY_ASSIGNED_CONTEXT ( ( #220 ) ) GLOBAL_UNIT_ASSIGNED_CONTEXT ( ( #19, #354, #53 ) ) REPRESENTATION_CONTEXT ( 'NONE', 'WORKASPACE' ) );
#86 = APPROVAL_STATUS ( 'not_yet_approved' ) ;
#87 = FACE_OUTER_BOUND ( 'NONE', #26, .T. ) ;
#88 = ADVANCED_FACE ( 'NONE', ( #63 ), #238, .T. ) ;
#89 = ORIENTED_EDGE ( 'NONE', *, *, #78, .T. ) ;
#90 = DIRECTION ( 'NONE',  ( 1.000000000000000000, 0.000000000000000000, 0.000000000000000000 ) ) ;
#91 = LOCAL_TIME ( 21, 27, 36.00000000000000000, #81 ) ;
#92 = CARTESIAN_POINT ( 'NONE',  ( 0.000000000000000000, 0.000000000000000000, 0.000000000000000000 ) ) ;
#93 = ORIENTED_EDGE ( 'NONE', *, *, #296, .F. ) ;
#94 = AXIS2_PLACEMENT_3D ( 'NONE', #197, #319, #215 ) ;
#95 = ORIENTED_EDGE ( 'NONE', *, *, #261, .T. ) ;
#96 = DIRECTION ( 'NONE',  ( -1.000000000000000000, -0.000000000000000000, -0.000000000000000000 ) ) ;
#97 = EDGE_LOOP ( 'NONE', ( #160, #306 ) ) ;
#98 = CARTESIAN_POINT ( 'NONE',  ( 22.00000000000000711, 0.000000000000000000, 0.000000000000000000 ) ) ;
#99 = CARTESIAN_POINT ( 'NONE',  ( 22.00000000000000711, 1.224646799147353256E-15, -10.00000000000000000 ) ) ;
#100 = APPLICATION_CONTEXT ( 'configuration controlled 3d designs of mechanical parts and assemblies' ) ;
#101 = CIRCLE ( 'NONE', #325, 10.00000000000000000 ) ;
#102 = CARTESIAN_POINT ( 'NONE',  ( 0.000000000000000000, 0.000000000000000000, 0.000000000000000000 ) ) ;
#103 = CARTESIAN_POINT ( 'NONE',  ( 79.00000000000000000, 13.22049999999999947, 0.000000000000000000 ) ) ;
#104 = FACE_OUTER_BOUND ( 'NONE', #318, .T. ) ;
#105 = ORIENTED_EDGE ( 'NONE', *, *, #370, .F. ) ;
#106 = LINE ( 'NONE', #188, #395 ) ;
#107 = CALENDAR_DATE ( 2022, 25, 8 ) ;
#108 = AXIS2_PLACEMENT_3D ( 'NONE', #293, #394, #55 ) ;
#109 = FACE_OUTER_BOUND ( 'NONE', #158, .T. ) ;
#110 = EDGE_CURVE ( 'NONE', #187, #375, #155, .T. ) ;
#111 = DATE_TIME_ROLE ( 'creation_date' ) ;
#112 = PERSON_AND_ORGANIZATION ( #142, #260 ) ;
#113 = ORIENTED_EDGE ( 'NONE', *, *, #3, .T. ) ;
#114 = EDGE_CURVE ( 'NONE', #213, #364, #122, .T. ) ;
#115 = CARTESIAN_POINT ( 'NONE',  ( 23.75000000000001066, 0.000000000000000000, 12.97049999999999947 ) ) ;
#116 = VERTEX_POINT ( 'NONE', #304 ) ;
#117 = CONICAL_SURFACE ( 'NONE', #156, 13.22049999999999947, 0.7853981633974378429 ) ;
#118 = LOCAL_TIME ( 21, 27, 36.00000000000000000, #29 ) ;
#119 = EDGE_CURVE ( 'NONE', #253, #236, #101, .T. ) ;
#120 = COORDINATED_UNIVERSAL_TIME_OFFSET ( 1, 0, .AHEAD. ) ;
#121 = EDGE_LOOP ( 'NONE', ( #89, #277 ) ) ;
#122 = LINE ( 'NONE', #62, #338 ) ;
#123 = DIRECTION ( 'NONE',  ( 0.000000000000000000, 0.000000000000000000, 1.000000000000000000 ) ) ;
#124 = VECTOR ( 'NONE', #298, 1000.000000000000000 ) ;
#125 = APPROVAL_PERSON_ORGANIZATION ( #21, #210, #79 ) ;
#126 = ADVANCED_FACE ( 'NONE', ( #209 ), #335, .T. ) ;
#127 = ORIENTED_EDGE ( 'NONE', *, *, #342, .F. ) ;
#128 = DIRECTION ( 'NONE',  ( 0.000000000000000000, 0.000000000000000000, 1.000000000000000000 ) ) ;
#129 = ADVANCED_FACE ( 'NONE', ( #344 ), #117, .T. ) ;
#130 = CIRCLE ( 'NONE', #351, 10.00000000000000000 ) ;
#131 = VERTEX_POINT ( 'NONE', #350 ) ;
#132 = DIRECTION ( 'NONE',  ( -1.000000000000000000, -0.000000000000000000, -0.000000000000000000 ) ) ;
#133 = AXIS2_PLACEMENT_3D ( 'NONE', #297, #205, #390 ) ;
#134 = DIRECTION ( 'NONE',  ( -1.000000000000000000, -0.000000000000000000, -0.000000000000000000 ) ) ;
#135 = CIRCLE ( 'NONE', #94, 10.00000000000000000 ) ;
#136 = FACE_OUTER_BOUND ( 'NONE', #148, .T. ) ;
#137 = CARTESIAN_POINT ( 'NONE',  ( 0.000000000000000000, 0.000000000000000000, 0.000000000000000000 ) ) ;
#138 = DIRECTION ( 'NONE',  ( 0.000000000000000000, 0.000000000000000000, 1.000000000000000000 ) ) ;
#139 = CARTESIAN_POINT ( 'NONE',  ( 78.49999999999998579, 0.000000000000000000, 13.22049999999999947 ) ) ;
#140 = CARTESIAN_POINT ( 'NONE',  ( 0.000000000000000000, 0.000000000000000000, 12.97049999999999947 ) ) ;
#141 = PERSON_AND_ORGANIZATION ( #142, #260 ) ;
#142 = PERSON ( 'NEURÈENÝ', 'NEURÈENÝ', 'NEURÈENÝ', ('NEURÈENÝ'), ('NEURÈENÝ'), ('NEURÈENÝ') ) ;
#143 = CC_DESIGN_PERSON_AND_ORGANIZATION_ASSIGNMENT ( #141, #259, ( #166 ) ) ;
#144 = APPROVAL_DATE_TIME ( #27, #210 ) ;
#145 = LINE ( 'NONE', #392, #124 ) ;
#146 = ORIENTED_EDGE ( 'NONE', *, *, #330, .T. ) ;
#147 = APPROVAL_ROLE ( '' ) ;
#148 = EDGE_LOOP ( 'NONE', ( #302, #363, #246, #307 ) ) ;
#149 = ORIENTED_EDGE ( 'NONE', *, *, #181, .T. ) ;
#150 = APPROVAL_STATUS ( 'not_yet_approved' ) ;
#151 = CARTESIAN_POINT ( 'NONE',  ( 0.000000000000000000, 0.000000000000000000, 0.000000000000000000 ) ) ;
#152 = LINE ( 'NONE', #239, #269 ) ;
#153 = EDGE_CURVE ( 'NONE', #131, #263, #180, .T. ) ;
#154 = ORIENTED_EDGE ( 'NONE', *, *, #181, .F. ) ;
#155 = LINE ( 'NONE', #182, #388 ) ;
#156 = AXIS2_PLACEMENT_3D ( 'NONE', #38, #96, #254 ) ;
#157 = CC_DESIGN_PERSON_AND_ORGANIZATION_ASSIGNMENT ( #299, #326, ( #356 ) ) ;
#158 = EDGE_LOOP ( 'NONE', ( #329, #276, #50, #357 ) ) ;
#159 = EDGE_CURVE ( 'NONE', #367, #169, #164, .T. ) ;
#160 = ORIENTED_EDGE ( 'NONE', *, *, #153, .T. ) ;
#161 = CARTESIAN_POINT ( 'NONE',  ( 23.50000000000000355, 0.000000000000000000, 0.000000000000000000 ) ) ;
#162 = CC_DESIGN_APPROVAL ( #210, ( #166 ) ) ;
#163 = DIRECTION ( 'NONE',  ( 1.000000000000000000, 0.000000000000000000, 0.000000000000000000 ) ) ;
#164 = LINE ( 'NONE', #67, #380 ) ;
#165 = FACE_BOUND ( 'NONE', #287, .T. ) ;
#166 = PRODUCT_DEFINITION_FORMATION_WITH_SPECIFIED_SOURCE ( 'LIBOVOLNÝ', '', #295, .NOT_KNOWN. ) ;
#167 = DIRECTION ( 'NONE',  ( -1.000000000000000000, -0.000000000000000000, -0.000000000000000000 ) ) ;
#168 = EDGE_CURVE ( 'NONE', #364, #169, #345, .T. ) ;
#169 = VERTEX_POINT ( 'NONE', #42 ) ;
#170 = DIRECTION ( 'NONE',  ( 0.000000000000000000, 0.000000000000000000, -1.000000000000000000 ) ) ;
#171 = DATE_AND_TIME ( #52, #23 ) ;
#172 = DIRECTION ( 'NONE',  ( 0.000000000000000000, 0.000000000000000000, 1.000000000000000000 ) ) ;
#173 = DIRECTION ( 'NONE',  ( -1.000000000000000000, 0.000000000000000000, 0.000000000000000000 ) ) ;
#174 = CONICAL_SURFACE ( 'NONE', #203, 12.72049999999999059, 0.7853981633974533860 ) ;
#175 = APPROVAL_PERSON_ORGANIZATION ( #386, #336, #147 ) ;
#176 = CALENDAR_DATE ( 2022, 25, 8 ) ;
#177 = LINE ( 'NONE', #265, #244 ) ;
#178 = PERSON_AND_ORGANIZATION ( #142, #260 ) ;
#179 = CONICAL_SURFACE ( 'NONE', #249, 12.72049999999999059, 0.7853981633974533860 ) ;
#180 = CIRCLE ( 'NONE', #217, 12.97049999999999947 ) ;
#181 = EDGE_CURVE ( 'NONE', #116, #267, #130, .T. ) ;
#182 = CARTESIAN_POINT ( 'NONE',  ( 78.49999999999998579, 1.619044300812758254E-15, -13.22049999999999947 ) ) ;
#183 = DIRECTION ( 'NONE',  ( 0.000000000000000000, 0.000000000000000000, 1.000000000000000000 ) ) ;
#184 = CIRCLE ( 'NONE', #40, 13.22049999999999947 ) ;
#185 = ORIENTED_EDGE ( 'NONE', *, *, #330, .F. ) ;
#186 = ADVANCED_FACE ( 'NONE', ( #308 ), #174, .T. ) ;
#187 = VERTEX_POINT ( 'NONE', #384 ) ;
#188 = CARTESIAN_POINT ( 'NONE',  ( 0.000000000000000000, 1.619044300812758254E-15, -13.22049999999999947 ) ) ;
#189 = CARTESIAN_POINT ( 'NONE',  ( 78.49999999999998579, 0.000000000000000000, 0.000000000000000000 ) ) ;
#190 = CONICAL_SURFACE ( 'NONE', #108, 13.22049999999999947, 0.7853981633974378429 ) ;
#191 = DIRECTION ( 'NONE',  ( -1.000000000000000000, -0.000000000000000000, -0.000000000000000000 ) ) ;
#192 = DIRECTION ( 'NONE',  ( -1.000000000000000000, -0.000000000000000000, -0.000000000000000000 ) ) ;
#193 = CC_DESIGN_DATE_AND_TIME_ASSIGNMENT ( #353, #111, ( #356 ) ) ;
#194 = CYLINDRICAL_SURFACE ( 'NONE', #245, 13.22049999999999947 ) ;
#195 = AXIS2_PLACEMENT_3D ( 'NONE', #103, #381, #221 ) ;
#196 = ADVANCED_FACE ( 'NONE', ( #389 ), #179, .T. ) ;
#197 = CARTESIAN_POINT ( 'NONE',  ( 22.00000000000000711, 0.000000000000000000, 0.000000000000000000 ) ) ;
#198 = APPLICATION_PROTOCOL_DEFINITION ( 'international standard', 'config_control_design', 1994, #378 ) ;
#199 = CARTESIAN_POINT ( 'NONE',  ( 24.00000000000000711, 0.000000000000000000, 0.000000000000000000 ) ) ;
#200 = SECURITY_CLASSIFICATION_LEVEL ( 'unclassified' ) ;
#201 = SHAPE_DEFINITION_REPRESENTATION ( #366, #241 ) ;
#202 = CARTESIAN_POINT ( 'NONE',  ( 79.00000000000000000, 0.000000000000000000, 12.72049999999999592 ) ) ;
#203 = AXIS2_PLACEMENT_3D ( 'NONE', #161, #20, #39 ) ;
#204 = ORIENTED_EDGE ( 'NONE', *, *, #13, .F. ) ;
#205 = DIRECTION ( 'NONE',  ( 0.000000000000000000, 0.000000000000000000, 1.000000000000000000 ) ) ;
#206 = ORIENTED_EDGE ( 'NONE', *, *, #33, .T. ) ;
#207 = DIRECTION ( 'NONE',  ( 0.000000000000000000, 0.000000000000000000, 1.000000000000000000 ) ) ;
#208 = CIRCLE ( 'NONE', #374, 13.22049999999999947 ) ;
#209 = FACE_OUTER_BOUND ( 'NONE', #25, .T. ) ;
#210 = APPROVAL ( #150, 'NEURÈENÝ' ) ;
#211 = ORIENTED_EDGE ( 'NONE', *, *, #78, .F. ) ;
#212 = AXIS2_PLACEMENT_3D ( 'NONE', #256, #284, #314 ) ;
#213 = VERTEX_POINT ( 'NONE', #376 ) ;
#214 = FACE_BOUND ( 'NONE', #7, .T. ) ;
#215 = DIRECTION ( 'NONE',  ( 0.000000000000000000, 0.000000000000000000, -1.000000000000000000 ) ) ;
#216 = CARTESIAN_POINT ( 'NONE',  ( 79.00000000000000000, 0.000000000000000000, 0.000000000000000000 ) ) ;
#217 = AXIS2_PLACEMENT_3D ( 'NONE', #281, #69, #310 ) ;
#218 = FACE_OUTER_BOUND ( 'NONE', #121, .T. ) ;
#219 = APPROVAL ( #86, 'NEURÈENÝ' ) ;
#220 = UNCERTAINTY_MEASURE_WITH_UNIT (LENGTH_MEASURE( 1.000000000000000082E-05 ), #19, 'distance_accuracy_value', 'NONE');
#221 = DIRECTION ( 'NONE',  ( -0.000000000000000000, 0.000000000000000000, 1.000000000000000000 ) ) ;
#222 = EDGE_CURVE ( 'NONE', #375, #364, #106, .T. ) ;
#223 = DIRECTION ( 'NONE',  ( 0.000000000000000000, 0.000000000000000000, -1.000000000000000000 ) ) ;
#224 = EDGE_LOOP ( 'NONE', ( #185, #113, #76, #232 ) ) ;
#225 = DIRECTION ( 'NONE',  ( -1.000000000000000000, -0.000000000000000000, -0.000000000000000000 ) ) ;
#226 = AXIS2_PLACEMENT_3D ( 'NONE', #216, #225, #5 ) ;
#227 = DATE_AND_TIME ( #107, #91 ) ;
#228 = AXIS2_PLACEMENT_3D ( 'NONE', #250, #44, #172 ) ;
#229 = DATE_AND_TIME ( #235, #280 ) ;
#230 = LINE ( 'NONE', #359, #368 ) ;
#231 = ORIENTED_EDGE ( 'NONE', *, *, #119, .T. ) ;
#232 = ORIENTED_EDGE ( 'NONE', *, *, #114, .F. ) ;
#233 = AXIS2_PLACEMENT_3D ( 'NONE', #347, #192, #73 ) ;
#234 = ORIENTED_EDGE ( 'NONE', *, *, #60, .F. ) ;
#235 = CALENDAR_DATE ( 2022, 25, 8 ) ;
#236 = VERTEX_POINT ( 'NONE', #283 ) ;
#237 = EDGE_CURVE ( 'NONE', #267, #116, #135, .T. ) ;
#238 = CYLINDRICAL_SURFACE ( 'NONE', #279, 12.97049999999999947 ) ;
#239 = CARTESIAN_POINT ( 'NONE',  ( 79.00000000000000000, 1.224646799147353256E-15, -10.00000000000000000 ) ) ;
#240 = CC_DESIGN_SECURITY_CLASSIFICATION ( #301, ( #166 ) ) ;
#241 = ADVANCED_BREP_SHAPE_REPRESENTATION ( 'eca1', ( #6, #133 ), #85 ) ;
#242 = EDGE_LOOP ( 'NONE', ( #31, #56, #337, #372 ) ) ;
#243 = DIRECTION ( 'NONE',  ( -1.000000000000000000, -0.000000000000000000, -0.000000000000000000 ) ) ;
#244 = VECTOR ( 'NONE', #323, 1000.000000000000000 ) ;
#245 = AXIS2_PLACEMENT_3D ( 'NONE', #102, #167, #286 ) ;
#246 = ORIENTED_EDGE ( 'NONE', *, *, #168, .T. ) ;
#247 = CARTESIAN_POINT ( 'NONE',  ( 24.00000000000000711, 0.000000000000000000, 0.000000000000000000 ) ) ;
#248 = DIRECTION ( 'NONE',  ( 0.000000000000000000, 0.000000000000000000, -1.000000000000000000 ) ) ;
#249 = AXIS2_PLACEMENT_3D ( 'NONE', #278, #8, #77 ) ;
#250 = CARTESIAN_POINT ( 'NONE',  ( 79.00000000000000000, 0.000000000000000000, 0.000000000000000000 ) ) ;
#251 = EDGE_CURVE ( 'NONE', #37, #367, #343, .T. ) ;
#252 = DIRECTION ( 'NONE',  ( 1.000000000000000000, 0.000000000000000000, 0.000000000000000000 ) ) ;
#253 = VERTEX_POINT ( 'NONE', #12 ) ;
#254 = DIRECTION ( 'NONE',  ( 0.000000000000000000, 0.000000000000000000, 1.000000000000000000 ) ) ;
#255 = APPLICATION_PROTOCOL_DEFINITION ( 'international standard', 'config_control_design', 1994, #100 ) ;
#256 = CARTESIAN_POINT ( 'NONE',  ( 22.00000000000000355, 0.000000000000000000, 0.000000000000000000 ) ) ;
#257 = CARTESIAN_POINT ( 'NONE',  ( 22.00000000000000355, 1.588428130834074467E-15, -12.97049999999999947 ) ) ;
#258 = CIRCLE ( 'NONE', #74, 13.22049999999999947 ) ;
#259 = PERSON_AND_ORGANIZATION_ROLE ( 'design_supplier' ) ;
#260 = ORGANIZATION ( 'NEURÈENÝ', 'NEURÈENÝ', '' ) ;
#261 = EDGE_CURVE ( 'NONE', #36, #131, #289, .T. ) ;
#262 = COORDINATED_UNIVERSAL_TIME_OFFSET ( 1, 0, .AHEAD. ) ;
#263 = VERTEX_POINT ( 'NONE', #257 ) ;
#264 = ORIENTED_EDGE ( 'NONE', *, *, #3, .F. ) ;
#265 = CARTESIAN_POINT ( 'NONE',  ( 0.000000000000000000, 1.588428130834074467E-15, -12.97049999999999947 ) ) ;
#266 = PRODUCT_RELATED_PRODUCT_CATEGORY ( 'detail', '', ( #295 ) ) ;
#267 = VERTEX_POINT ( 'NONE', #99 ) ;
#268 = PERSON_AND_ORGANIZATION_ROLE ( 'creator' ) ;
#269 = VECTOR ( 'NONE', #398, 1000.000000000000000 ) ;
#270 = EDGE_CURVE ( 'NONE', #375, #367, #184, .T. ) ;
#271 = DESIGN_CONTEXT ( 'detailed design', #378, 'design' ) ;
#272 = CARTESIAN_POINT ( 'NONE',  ( 78.49999999999998579, 0.000000000000000000, 0.000000000000000000 ) ) ;
#273 = CARTESIAN_POINT ( 'NONE',  ( 79.00000000000000000, 0.000000000000000000, 0.000000000000000000 ) ) ;
#274 = ORIENTED_EDGE ( 'NONE', *, *, #119, .F. ) ;
#275 = AXIS2_PLACEMENT_3D ( 'NONE', #82, #173, #28 ) ;
#276 = ORIENTED_EDGE ( 'NONE', *, *, #270, .T. ) ;
#277 = ORIENTED_EDGE ( 'NONE', *, *, #309, .T. ) ;
#278 = CARTESIAN_POINT ( 'NONE',  ( 23.50000000000000355, 0.000000000000000000, 0.000000000000000000 ) ) ;
#279 = AXIS2_PLACEMENT_3D ( 'NONE', #92, #35, #183 ) ;
#280 = LOCAL_TIME ( 21, 27, 36.00000000000000000, #120 ) ;
#281 = CARTESIAN_POINT ( 'NONE',  ( 22.00000000000000355, 0.000000000000000000, 0.000000000000000000 ) ) ;
#282 = ADVANCED_FACE ( 'NONE', ( #312 ), #377, .F. ) ;
#283 = CARTESIAN_POINT ( 'NONE',  ( 79.00000000000000000, 1.224646799147353256E-15, -10.00000000000000000 ) ) ;
#284 = DIRECTION ( 'NONE',  ( 1.000000000000000000, 0.000000000000000000, 0.000000000000000000 ) ) ;
#285 = CIRCLE ( 'NONE', #233, 12.97049999999999947 ) ;
#286 = DIRECTION ( 'NONE',  ( 0.000000000000000000, 0.000000000000000000, 1.000000000000000000 ) ) ;
#287 = EDGE_LOOP ( 'NONE', ( #231, #206 ) ) ;
#288 = CARTESIAN_POINT ( 'NONE',  ( 23.75000000000001066, 0.000000000000000000, 0.000000000000000000 ) ) ;
#289 = LINE ( 'NONE', #140, #9 ) ;
#290 = ADVANCED_FACE ( 'NONE', ( #214, #341 ), #387, .F. ) ;
#291 = CARTESIAN_POINT ( 'NONE',  ( 24.00000000000000711, 1.619044300812758254E-15, -13.22049999999999947 ) ) ;
#292 = PERSON_AND_ORGANIZATION ( #142, #260 ) ;
#293 = CARTESIAN_POINT ( 'NONE',  ( 78.49999999999998579, 0.000000000000000000, 0.000000000000000000 ) ) ;
#294 = ORIENTED_EDGE ( 'NONE', *, *, #33, .F. ) ;
#295 = PRODUCT ( 'eca1', 'eca1', '', ( #57 ) ) ;
#296 = EDGE_CURVE ( 'NONE', #169, #364, #208, .T. ) ;
#297 = CARTESIAN_POINT ( 'NONE',  ( 0.000000000000000000, 0.000000000000000000, 0.000000000000000000 ) ) ;
#298 = DIRECTION ( 'NONE',  ( -1.000000000000000000, -0.000000000000000000, -0.000000000000000000 ) ) ;
#299 = PERSON_AND_ORGANIZATION ( #142, #260 ) ;
#300 = ADVANCED_FACE ( 'NONE', ( #136 ), #317, .T. ) ;
#301 = SECURITY_CLASSIFICATION ( '', '', #200 ) ;
#302 = ORIENTED_EDGE ( 'NONE', *, *, #72, .T. ) ;
#303 = DIRECTION ( 'NONE',  ( 0.7071067811865439090, 0.000000000000000000, -0.7071067811865512365 ) ) ;
#304 = CARTESIAN_POINT ( 'NONE',  ( 22.00000000000000711, 0.000000000000000000, 10.00000000000000000 ) ) ;
#305 = AXIS2_PLACEMENT_3D ( 'NONE', #288, #315, #223 ) ;
#306 = ORIENTED_EDGE ( 'NONE', *, *, #342, .T. ) ;
#307 = ORIENTED_EDGE ( 'NONE', *, *, #159, .F. ) ;
#308 = FACE_OUTER_BOUND ( 'NONE', #349, .T. ) ;
#309 = EDGE_CURVE ( 'NONE', #187, #37, #332, .T. ) ;
#310 = DIRECTION ( 'NONE',  ( 0.000000000000000000, 0.000000000000000000, 1.000000000000000000 ) ) ;
#311 = CLOSED_SHELL ( 'NONE', ( #129, #196, #282, #300, #88, #290, #126, #371, #334, #385, #186, #17 ) ) ;
#312 = FACE_OUTER_BOUND ( 'NONE', #83, .T. ) ;
#313 = CYLINDRICAL_SURFACE ( 'NONE', #48, 10.00000000000000000 ) ;
#314 = DIRECTION ( 'NONE',  ( 0.000000000000000000, 0.000000000000000000, -1.000000000000000000 ) ) ;
#315 = DIRECTION ( 'NONE',  ( -1.000000000000000000, -0.000000000000000000, -0.000000000000000000 ) ) ;
#316 = VECTOR ( 'NONE', #68, 1000.000000000000000 ) ;
#317 = CYLINDRICAL_SURFACE ( 'NONE', #30, 13.22049999999999947 ) ;
#318 = EDGE_LOOP ( 'NONE', ( #234, #274, #327, #34 ) ) ;
#319 = DIRECTION ( 'NONE',  ( 1.000000000000000000, 0.000000000000000000, 0.000000000000000000 ) ) ;
#320 = APPROVAL_ROLE ( '' ) ;
#321 = DIRECTION ( 'NONE',  ( 0.000000000000000000, 0.000000000000000000, 1.000000000000000000 ) ) ;
#322 = PERSON_AND_ORGANIZATION ( #142, #260 ) ;
#323 = DIRECTION ( 'NONE',  ( -1.000000000000000000, -0.000000000000000000, -0.000000000000000000 ) ) ;
#324 = CC_DESIGN_PERSON_AND_ORGANIZATION_ASSIGNMENT ( #322, #396, ( #301 ) ) ;
#325 = AXIS2_PLACEMENT_3D ( 'NONE', #273, #32, #399 ) ;
#326 = PERSON_AND_ORGANIZATION_ROLE ( 'creator' ) ;
#327 = ORIENTED_EDGE ( 'NONE', *, *, #45, .T. ) ;
#328 = ORIENTED_EDGE ( 'NONE', *, *, #261, .F. ) ;
#329 = ORIENTED_EDGE ( 'NONE', *, *, #222, .F. ) ;
#330 = EDGE_CURVE ( 'NONE', #36, #213, #41, .T. ) ;
#331 = ORIENTED_EDGE ( 'NONE', *, *, #13, .T. ) ;
#332 = CIRCLE ( 'NONE', #228, 12.72049999999999592 ) ;
#333 = DIRECTION ( 'NONE',  ( -0.7071067811865549002, 8.659560562354842879E-17, -0.7071067811865401342 ) ) ;
#334 = ADVANCED_FACE ( 'NONE', ( #218, #165 ), #71, .F. ) ;
#335 = CYLINDRICAL_SURFACE ( 'NONE', #361, 12.97049999999999947 ) ;
#336 = APPROVAL ( #358, 'NEURÈENÝ' ) ;
#337 = ORIENTED_EDGE ( 'NONE', *, *, #72, .F. ) ;
#338 = VECTOR ( 'NONE', #303, 1000.000000000000000 ) ;
#339 = APPROVAL_PERSON_ORGANIZATION ( #178, #219, #320 ) ;
#340 = ORIENTED_EDGE ( 'NONE', *, *, #60, .T. ) ;
#341 = FACE_OUTER_BOUND ( 'NONE', #97, .T. ) ;
#342 = EDGE_CURVE ( 'NONE', #263, #131, #65, .T. ) ;
#343 = LINE ( 'NONE', #373, #316 ) ;
#344 = FACE_OUTER_BOUND ( 'NONE', #242, .T. ) ;
#345 = CIRCLE ( 'NONE', #10, 13.22049999999999947 ) ;
#346 = DIRECTION ( 'NONE',  ( -1.000000000000000000, -0.000000000000000000, -0.000000000000000000 ) ) ;
#347 = CARTESIAN_POINT ( 'NONE',  ( 23.75000000000001066, 0.000000000000000000, 0.000000000000000000 ) ) ;
#348 = DIRECTION ( 'NONE',  ( 0.000000000000000000, 0.000000000000000000, 1.000000000000000000 ) ) ;
#349 = EDGE_LOOP ( 'NONE', ( #264, #105, #383, #93 ) ) ;
#350 = CARTESIAN_POINT ( 'NONE',  ( 22.00000000000000355, 0.000000000000000000, 12.97049999999999947 ) ) ;
#351 = AXIS2_PLACEMENT_3D ( 'NONE', #98, #51, #170 ) ;
#352 = CC_DESIGN_APPROVAL ( #336, ( #301 ) ) ;
#353 = DATE_AND_TIME ( #355, #118 ) ;
#354 =( NAMED_UNIT ( * ) PLANE_ANGLE_UNIT ( ) SI_UNIT ( $, .RADIAN. ) );
#355 = CALENDAR_DATE ( 2022, 25, 8 ) ;
#356 = PRODUCT_DEFINITION ( 'NEZNÁMÝ', '', #166, #271 ) ;
#357 = ORIENTED_EDGE ( 'NONE', *, *, #296, .T. ) ;
#358 = APPROVAL_STATUS ( 'not_yet_approved' ) ;
#359 = CARTESIAN_POINT ( 'NONE',  ( 23.50000000000000355, 1.557811960855389497E-15, 12.72049999999999059 ) ) ;
#360 = ORIENTED_EDGE ( 'NONE', *, *, #270, .F. ) ;
#361 = AXIS2_PLACEMENT_3D ( 'NONE', #151, #132, #138 ) ;
#362 = ORIENTED_EDGE ( 'NONE', *, *, #251, .T. ) ;
#363 = ORIENTED_EDGE ( 'NONE', *, *, #222, .T. ) ;
#364 = VERTEX_POINT ( 'NONE', #291 ) ;
#365 = CARTESIAN_POINT ( 'NONE',  ( 79.00000000000000000, 0.000000000000000000, 0.000000000000000000 ) ) ;
#366 = PRODUCT_DEFINITION_SHAPE ( 'NONE', 'NONE',  #356 ) ;
#367 = VERTEX_POINT ( 'NONE', #139 ) ;
#368 = VECTOR ( 'NONE', #58, 1000.000000000000000 ) ;
#369 = DIRECTION ( 'NONE',  ( -1.000000000000000000, -0.000000000000000000, -0.000000000000000000 ) ) ;
#370 = EDGE_CURVE ( 'NONE', #213, #36, #285, .T. ) ;
#371 = ADVANCED_FACE ( 'NONE', ( #109 ), #194, .T. ) ;
#372 = ORIENTED_EDGE ( 'NONE', *, *, #251, .F. ) ;
#373 = CARTESIAN_POINT ( 'NONE',  ( 78.49999999999998579, 0.000000000000000000, 13.22049999999999947 ) ) ;
#374 = AXIS2_PLACEMENT_3D ( 'NONE', #199, #252, #15 ) ;
#375 = VERTEX_POINT ( 'NONE', #16 ) ;
#376 = CARTESIAN_POINT ( 'NONE',  ( 23.75000000000001066, 1.588428130834074467E-15, -12.97049999999999947 ) ) ;
#377 = CYLINDRICAL_SURFACE ( 'NONE', #226, 10.00000000000000000 ) ;
#378 = APPLICATION_CONTEXT ( 'configuration controlled 3d designs of mechanical parts and assemblies' ) ;
#379 = DIRECTION ( 'NONE',  ( -1.000000000000000000, -0.000000000000000000, -0.000000000000000000 ) ) ;
#380 = VECTOR ( 'NONE', #18, 1000.000000000000000 ) ;
#381 = DIRECTION ( 'NONE',  ( -1.000000000000000000, 0.000000000000000000, -0.000000000000000000 ) ) ;
#382 = CARTESIAN_POINT ( 'NONE',  ( 22.00000000000000355, 0.000000000000000000, 0.000000000000000000 ) ) ;
#383 = ORIENTED_EDGE ( 'NONE', *, *, #114, .T. ) ;
#384 = CARTESIAN_POINT ( 'NONE',  ( 79.00000000000000000, 1.588428130834074270E-15, -12.72049999999999592 ) ) ;
#385 = ADVANCED_FACE ( 'NONE', ( #104 ), #313, .F. ) ;
#386 = PERSON_AND_ORGANIZATION ( #142, #260 ) ;
#387 = PLANE ( 'NONE',  #212 ) ;
#388 = VECTOR ( 'NONE', #333, 1000.000000000000000 ) ;
#389 = FACE_OUTER_BOUND ( 'NONE', #224, .T. ) ;
#390 = DIRECTION ( 'NONE',  ( 1.000000000000000000, 0.000000000000000000, 0.000000000000000000 ) ) ;
#391 = COORDINATED_UNIVERSAL_TIME_OFFSET ( 1, 0, .AHEAD. ) ;
#392 = CARTESIAN_POINT ( 'NONE',  ( 79.00000000000000000, 0.000000000000000000, 10.00000000000000000 ) ) ;
#393 = APPROVAL_DATE_TIME ( #227, #336 ) ;
#394 = DIRECTION ( 'NONE',  ( -1.000000000000000000, -0.000000000000000000, -0.000000000000000000 ) ) ;
#395 = VECTOR ( 'NONE', #191, 1000.000000000000000 ) ;
#396 = PERSON_AND_ORGANIZATION_ROLE ( 'classification_officer' ) ;
#397 = LOCAL_TIME ( 21, 27, 36.00000000000000000, #391 ) ;
#398 = DIRECTION ( 'NONE',  ( -1.000000000000000000, -0.000000000000000000, -0.000000000000000000 ) ) ;
#399 = DIRECTION ( 'NONE',  ( 0.000000000000000000, 0.000000000000000000, 1.000000000000000000 ) ) ;
ENDSEC;
END-ISO-10303-21;
