ISO-10303-21;
HEADER;
FILE_DESCRIPTION (( 'STEP AP203' ),
    '1' );
FILE_NAME ('1b4e.STEP',
    '2022-06-20T09:32:38',
    ( '' ),
    ( '' ),
    'SwSTEP 2.0',
    'SolidWorks 2019',
    '' );
FILE_SCHEMA (( 'CONFIG_CONTROL_DESIGN' ));
ENDSEC;

DATA;
#1 = CC_DESIGN_PERSON_AND_ORGANIZATION_ASSIGNMENT ( #171, #292, ( #97 ) ) ;
#2 = PERSON_AND_ORGANIZATION_ROLE ( 'creator' ) ;
#3 = EDGE_LOOP ( 'NONE', ( #40, #31, #271, #293 ) ) ;
#4 = EDGE_CURVE ( 'NONE', #180, #238, #22, .T. ) ;
#5 = PERSON_AND_ORGANIZATION_ROLE ( 'design_owner' ) ;
#6 = APPROVAL_DATE_TIME ( #212, #13 ) ;
#7 = ORIENTED_EDGE ( 'NONE', *, *, #111, .F. ) ;
#8 = VECTOR ( 'NONE', #232, 1000.000000000000000 ) ;
#9 = APPROVAL_PERSON_ORGANIZATION ( #57, #189, #133 ) ;
#10 = DIRECTION ( 'NONE',  ( -0.000000000000000000, -0.000000000000000000, -1.000000000000000000 ) ) ;
#11 = DIRECTION ( 'NONE',  ( -0.000000000000000000, -0.000000000000000000, -1.000000000000000000 ) ) ;
#12 = AXIS2_PLACEMENT_3D ( 'NONE', #114, #230, #255 ) ;
#13 = APPROVAL ( #47, 'NEURÈENÝ' ) ;
#14 = ORIENTED_EDGE ( 'NONE', *, *, #132, .F. ) ;
#15 = ADVANCED_BREP_SHAPE_REPRESENTATION ( '1b4e', ( #76, #113 ), #184 ) ;
#16 = ORIENTED_EDGE ( 'NONE', *, *, #111, .T. ) ;
#17 = CARTESIAN_POINT ( 'NONE',  ( 6.000000000000000888, 7.347880794884120722E-16, 407.0000000000000000 ) ) ;
#18 = ORIENTED_EDGE ( 'NONE', *, *, #267, .F. ) ;
#19 = DIRECTION ( 'NONE',  ( 0.000000000000000000, 0.000000000000000000, 1.000000000000000000 ) ) ;
#20 = CARTESIAN_POINT ( 'NONE',  ( -9.000000000000000000, 0.000000000000000000, 7.000000000000000000 ) ) ;
#21 = APPLICATION_CONTEXT ( 'configuration controlled 3d designs of mechanical parts and assemblies' ) ;
#22 = CIRCLE ( 'NONE', #207, 0.1999999999999996503 ) ;
#23 = LOCAL_TIME ( 11, 32, 38.00000000000000000, #55 ) ;
#24 = CC_DESIGN_SECURITY_CLASSIFICATION ( #153, ( #97 ) ) ;
#25 = EDGE_CURVE ( 'NONE', #73, #151, #93, .T. ) ;
#26 = CARTESIAN_POINT ( 'NONE',  ( -9.000000000000000000, 0.000000000000000000, 7.000000000000000000 ) ) ;
#27 = PRODUCT_DEFINITION ( 'NEZNÁMÝ', '', #97, #159 ) ;
#28 = AXIS2_PLACEMENT_3D ( 'NONE', #156, #115, #91 ) ;
#29 = ORIENTED_EDGE ( 'NONE', *, *, #245, .T. ) ;
#30 = APPLICATION_PROTOCOL_DEFINITION ( 'international standard', 'config_control_design', 1994, #80 ) ;
#31 = ORIENTED_EDGE ( 'NONE', *, *, #54, .F. ) ;
#32 = CIRCLE ( 'NONE', #129, 6.200000000000001066 ) ;
#33 = CALENDAR_DATE ( 2022, 20, 6 ) ;
#34 = FACE_OUTER_BOUND ( 'NONE', #217, .T. ) ;
#35 = DIRECTION ( 'NONE',  ( 0.000000000000000000, 0.000000000000000000, 1.000000000000000000 ) ) ;
#36 = AXIS2_PLACEMENT_3D ( 'NONE', #150, #249, #61 ) ;
#37 = VECTOR ( 'NONE', #66, 1000.000000000000000 ) ;
#38 = CARTESIAN_POINT ( 'NONE',  ( 9.000000000000000000, 1.102182119232617714E-15, 7.000000000000000000 ) ) ;
#39 = VERTEX_POINT ( 'NONE', #108 ) ;
#40 = ORIENTED_EDGE ( 'NONE', *, *, #99, .F. ) ;
#41 = DIRECTION ( 'NONE',  ( 1.000000000000000000, 0.000000000000000000, 0.000000000000000000 ) ) ;
#42 = CARTESIAN_POINT ( 'NONE',  ( 0.000000000000000000, 0.000000000000000000, 7.000000000000000000 ) ) ;
#43 = DIRECTION ( 'NONE',  ( 0.000000000000000000, 0.000000000000000000, 1.000000000000000000 ) ) ;
#44 = EDGE_CURVE ( 'NONE', #58, #180, #270, .T. ) ;
#45 = CIRCLE ( 'NONE', #107, 9.000000000000000000 ) ;
#46 = DIRECTION ( 'NONE',  ( 0.000000000000000000, 0.000000000000000000, 1.000000000000000000 ) ) ;
#47 = APPROVAL_STATUS ( 'not_yet_approved' ) ;
#48 = PRODUCT ( '1b4e', '1b4e', '', ( #169 ) ) ;
#49 = DATE_AND_TIME ( #263, #23 ) ;
#50 = AXIS2_PLACEMENT_3D ( 'NONE', #105, #78, #274 ) ;
#51 = AXIS2_PLACEMENT_3D ( 'NONE', #305, #90, #286 ) ;
#52 = DATE_AND_TIME ( #33, #302 ) ;
#53 = EDGE_LOOP ( 'NONE', ( #118, #125 ) ) ;
#54 = EDGE_CURVE ( 'NONE', #180, #58, #239, .T. ) ;
#55 = COORDINATED_UNIVERSAL_TIME_OFFSET ( 1, 0, .AHEAD. ) ;
#56 = ORIENTED_EDGE ( 'NONE', *, *, #197, .T. ) ;
#57 = PERSON_AND_ORGANIZATION ( #193, #69 ) ;
#58 = VERTEX_POINT ( 'NONE', #81 ) ;
#59 = EDGE_CURVE ( 'NONE', #39, #238, #135, .T. ) ;
#60 = ORIENTED_EDGE ( 'NONE', *, *, #267, .T. ) ;
#61 = DIRECTION ( 'NONE',  ( -1.000000000000000000, 0.000000000000000000, 0.000000000000000000 ) ) ;
#62 = CLOSED_SHELL ( 'NONE', ( #191, #74, #307, #277, #104, #281, #77, #137, #297 ) ) ;
#63 = AXIS2_PLACEMENT_3D ( 'NONE', #116, #10, #72 ) ;
#64 = CYLINDRICAL_SURFACE ( 'NONE', #36, 6.000000000000000888 ) ;
#65 = FACE_OUTER_BOUND ( 'NONE', #98, .T. ) ;
#66 = DIRECTION ( 'NONE',  ( -0.000000000000000000, -0.000000000000000000, -1.000000000000000000 ) ) ;
#67 = CARTESIAN_POINT ( 'NONE',  ( 0.000000000000000000, 0.000000000000000000, 407.0000000000000000 ) ) ;
#68 = DIRECTION ( 'NONE',  ( 1.000000000000000000, 0.000000000000000000, 0.000000000000000000 ) ) ;
#69 = ORGANIZATION ( 'NEURÈENÝ', 'NEURÈENÝ', '' ) ;
#70 = DIRECTION ( 'NONE',  ( 1.000000000000000000, 0.000000000000000000, 0.000000000000000000 ) ) ;
#71 = APPROVAL_PERSON_ORGANIZATION ( #288, #85, #146 ) ;
#72 = DIRECTION ( 'NONE',  ( -1.000000000000000000, 0.000000000000000000, 0.000000000000000000 ) ) ;
#73 = VERTEX_POINT ( 'NONE', #128 ) ;
#74 = ADVANCED_FACE ( 'NONE', ( #65 ), #64, .T. ) ;
#75 = ORIENTED_EDGE ( 'NONE', *, *, #223, .T. ) ;
#76 = MANIFOLD_SOLID_BREP ( 'Zaoblit1', #62 ) ;
#77 = ADVANCED_FACE ( 'NONE', ( #34 ), #227, .T. ) ;
#78 = DIRECTION ( 'NONE',  ( 0.000000000000000000, 0.000000000000000000, 1.000000000000000000 ) ) ;
#79 = ORIENTED_EDGE ( 'NONE', *, *, #223, .F. ) ;
#80 = APPLICATION_CONTEXT ( 'configuration controlled 3d designs of mechanical parts and assemblies' ) ;
#81 = CARTESIAN_POINT ( 'NONE',  ( -6.000000000000000888, 0.000000000000000000, 7.199999999999984190 ) ) ;
#82 = TOROIDAL_SURFACE ( 'NONE', #51, 6.200000000000001066, 0.2000000000000000111 ) ;
#83 = FACE_OUTER_BOUND ( 'NONE', #299, .T. ) ;
#84 = ORIENTED_EDGE ( 'NONE', *, *, #209, .F. ) ;
#85 = APPROVAL ( #266, 'NEURÈENÝ' ) ;
#86 = CARTESIAN_POINT ( 'NONE',  ( 0.000000000000000000, 0.000000000000000000, 7.000000000000000000 ) ) ;
#87 = UNCERTAINTY_MEASURE_WITH_UNIT (LENGTH_MEASURE( 1.000000000000000082E-05 ), #166, 'distance_accuracy_value', 'NONE');
#88 = CIRCLE ( 'NONE', #251, 6.000000000000000888 ) ;
#89 = CARTESIAN_POINT ( 'NONE',  ( 0.000000000000000000, 0.000000000000000000, 0.000000000000000000 ) ) ;
#90 = DIRECTION ( 'NONE',  ( 0.000000000000000000, 0.000000000000000000, 1.000000000000000000 ) ) ;
#91 = DIRECTION ( 'NONE',  ( 1.000000000000000000, 0.000000000000000000, -0.000000000000000000 ) ) ;
#92 = PRODUCT_DEFINITION_SHAPE ( 'NONE', 'NONE',  #27 ) ;
#93 = CIRCLE ( 'NONE', #50, 9.000000000000000000 ) ;
#94 = DIRECTION ( 'NONE',  ( 0.000000000000000000, 0.000000000000000000, 1.000000000000000000 ) ) ;
#95 = ORIENTED_EDGE ( 'NONE', *, *, #99, .T. ) ;
#96 = CARTESIAN_POINT ( 'NONE',  ( 0.000000000000000000, 0.000000000000000000, 0.000000000000000000 ) ) ;
#97 = PRODUCT_DEFINITION_FORMATION_WITH_SPECIFIED_SOURCE ( 'LIBOVOLNÝ', '', #48, .NOT_KNOWN. ) ;
#98 = EDGE_LOOP ( 'NONE', ( #18, #29, #300, #14 ) ) ;
#99 = EDGE_CURVE ( 'NONE', #58, #39, #194, .T. ) ;
#100 = DATE_AND_TIME ( #214, #275 ) ;
#101 = ORIENTED_EDGE ( 'NONE', *, *, #4, .F. ) ;
#102 = CIRCLE ( 'NONE', #283, 9.000000000000000000 ) ;
#103 = EDGE_LOOP ( 'NONE', ( #7, #213, #178, #56 ) ) ;
#104 = ADVANCED_FACE ( 'NONE', ( #253, #83 ), #131, .T. ) ;
#105 = CARTESIAN_POINT ( 'NONE',  ( 0.000000000000000000, 0.000000000000000000, 7.000000000000000000 ) ) ;
#106 = CARTESIAN_POINT ( 'NONE',  ( 0.000000000000000000, 0.000000000000000000, 7.199999999999984190 ) ) ;
#107 = AXIS2_PLACEMENT_3D ( 'NONE', #235, #161, #68 ) ;
#108 = CARTESIAN_POINT ( 'NONE',  ( -6.200000000000001066, 7.592810154713590821E-16, 6.999999999999992006 ) ) ;
#109 = PRODUCT_RELATED_PRODUCT_CATEGORY ( 'detail', '', ( #48 ) ) ;
#110 = LINE ( 'NONE', #301, #37 ) ;
#111 = EDGE_CURVE ( 'NONE', #73, #201, #155, .T. ) ;
#112 = CYLINDRICAL_SURFACE ( 'NONE', #234, 9.000000000000000000 ) ;
#113 = AXIS2_PLACEMENT_3D ( 'NONE', #96, #94, #122 ) ;
#114 = CARTESIAN_POINT ( 'NONE',  ( 0.000000000000000000, 0.000000000000000000, 7.199999999999984190 ) ) ;
#115 = DIRECTION ( 'NONE',  ( 0.000000000000000000, 0.000000000000000000, 1.000000000000000000 ) ) ;
#116 = CARTESIAN_POINT ( 'NONE',  ( 0.000000000000000000, 0.000000000000000000, 7.000000000000000000 ) ) ;
#117 = APPROVAL_ROLE ( '' ) ;
#118 = ORIENTED_EDGE ( 'NONE', *, *, #197, .F. ) ;
#119 = PERSON_AND_ORGANIZATION ( #193, #69 ) ;
#120 = PERSON_AND_ORGANIZATION ( #193, #69 ) ;
#121 = EDGE_LOOP ( 'NONE', ( #215, #176 ) ) ;
#122 = DIRECTION ( 'NONE',  ( 1.000000000000000000, 0.000000000000000000, 0.000000000000000000 ) ) ;
#123 = LOCAL_TIME ( 11, 32, 38.00000000000000000, #273 ) ;
#124 = APPROVAL_STATUS ( 'not_yet_approved' ) ;
#125 = ORIENTED_EDGE ( 'NONE', *, *, #163, .F. ) ;
#126 = APPROVAL_DATE_TIME ( #175, #189 ) ;
#127 = VERTEX_POINT ( 'NONE', #17 ) ;
#128 = CARTESIAN_POINT ( 'NONE',  ( 9.000000000000000000, 1.102182119232617714E-15, 7.000000000000000000 ) ) ;
#129 = AXIS2_PLACEMENT_3D ( 'NONE', #86, #205, #41 ) ;
#130 = DIRECTION ( 'NONE',  ( -0.000000000000000000, -0.000000000000000000, -1.000000000000000000 ) ) ;
#131 = PLANE ( 'NONE',  #233 ) ;
#132 = EDGE_CURVE ( 'NONE', #247, #58, #181, .T. ) ;
#133 = APPROVAL_ROLE ( '' ) ;
#134 = CARTESIAN_POINT ( 'NONE',  ( 0.000000000000000000, 0.000000000000000000, 7.199999999999984190 ) ) ;
#135 = CIRCLE ( 'NONE', #144, 6.200000000000001066 ) ;
#136 = DIRECTION ( 'NONE',  ( 0.000000000000000000, 0.000000000000000000, 1.000000000000000000 ) ) ;
#137 = ADVANCED_FACE ( 'NONE', ( #259 ), #231, .T. ) ;
#138 = CARTESIAN_POINT ( 'NONE',  ( 0.000000000000000000, 0.000000000000000000, 407.0000000000000000 ) ) ;
#139 = APPROVAL_PERSON_ORGANIZATION ( #120, #13, #117 ) ;
#140 = CARTESIAN_POINT ( 'NONE',  ( 6.000000000000000888, 7.347880794884120722E-16, 7.199999999999984190 ) ) ;
#141 = CYLINDRICAL_SURFACE ( 'NONE', #63, 9.000000000000000000 ) ;
#142 = DATE_TIME_ROLE ( 'creation_date' ) ;
#143 = TOROIDAL_SURFACE ( 'NONE', #12, 6.200000000000001066, 0.2000000000000000111 ) ;
#144 = AXIS2_PLACEMENT_3D ( 'NONE', #222, #276, #229 ) ;
#145 = ORIENTED_EDGE ( 'NONE', *, *, #163, .T. ) ;
#146 = APPROVAL_ROLE ( '' ) ;
#147 = SECURITY_CLASSIFICATION_LEVEL ( 'unclassified' ) ;
#148 =( NAMED_UNIT ( * ) SI_UNIT ( $, .STERADIAN. ) SOLID_ANGLE_UNIT ( ) );
#149 = ORIENTED_EDGE ( 'NONE', *, *, #25, .F. ) ;
#150 = CARTESIAN_POINT ( 'NONE',  ( 0.000000000000000000, 0.000000000000000000, 407.0000000000000000 ) ) ;
#151 = VERTEX_POINT ( 'NONE', #20 ) ;
#152 = DIRECTION ( 'NONE',  ( 0.000000000000000000, 0.000000000000000000, 1.000000000000000000 ) ) ;
#153 = SECURITY_CLASSIFICATION ( '', '', #147 ) ;
#154 = CARTESIAN_POINT ( 'NONE',  ( 0.000000000000000000, 0.000000000000000000, 407.0000000000000000 ) ) ;
#155 = LINE ( 'NONE', #38, #157 ) ;
#156 = CARTESIAN_POINT ( 'NONE',  ( 0.000000000000000000, 0.000000000000000000, 407.0000000000000000 ) ) ;
#157 = VECTOR ( 'NONE', #130, 1000.000000000000000 ) ;
#158 = FACE_OUTER_BOUND ( 'NONE', #103, .T. ) ;
#159 = DESIGN_CONTEXT ( 'detailed design', #21, 'design' ) ;
#160 = DIRECTION ( 'NONE',  ( 1.000000000000000000, 0.000000000000000000, 0.000000000000000000 ) ) ;
#161 = DIRECTION ( 'NONE',  ( 0.000000000000000000, 0.000000000000000000, 1.000000000000000000 ) ) ;
#162 = CC_DESIGN_APPROVAL ( #13, ( #97 ) ) ;
#163 = EDGE_CURVE ( 'NONE', #201, #243, #102, .T. ) ;
#164 = DIRECTION ( 'NONE',  ( 1.000000000000000000, 0.000000000000000000, -0.000000000000000000 ) ) ;
#165 = CC_DESIGN_DATE_AND_TIME_ASSIGNMENT ( #100, #198, ( #153 ) ) ;
#166 =( LENGTH_UNIT ( ) NAMED_UNIT ( * ) SI_UNIT ( .MILLI., .METRE. ) );
#167 = ORIENTED_EDGE ( 'NONE', *, *, #132, .T. ) ;
#168 = AXIS2_PLACEMENT_3D ( 'NONE', #89, #43, #164 ) ;
#169 = MECHANICAL_CONTEXT ( 'NONE', #80, 'mechanical' ) ;
#170 = ORIENTED_EDGE ( 'NONE', *, *, #245, .F. ) ;
#171 = PERSON_AND_ORGANIZATION ( #193, #69 ) ;
#172 = ORIENTED_EDGE ( 'NONE', *, *, #44, .F. ) ;
#173 = SHAPE_DEFINITION_REPRESENTATION ( #92, #15 ) ;
#174 = AXIS2_PLACEMENT_3D ( 'NONE', #134, #35, #294 ) ;
#175 = DATE_AND_TIME ( #225, #123 ) ;
#176 = ORIENTED_EDGE ( 'NONE', *, *, #59, .T. ) ;
#177 = CC_DESIGN_PERSON_AND_ORGANIZATION_ASSIGNMENT ( #244, #240, ( #153 ) ) ;
#178 = ORIENTED_EDGE ( 'NONE', *, *, #248, .T. ) ;
#179 = CIRCLE ( 'NONE', #282, 9.000000000000000000 ) ;
#180 = VERTEX_POINT ( 'NONE', #140 ) ;
#181 = LINE ( 'NONE', #182, #8 ) ;
#182 = CARTESIAN_POINT ( 'NONE',  ( -6.000000000000000888, 0.000000000000000000, 407.0000000000000000 ) ) ;
#183 = CARTESIAN_POINT ( 'NONE',  ( -9.000000000000000000, 0.000000000000000000, 0.000000000000000000 ) ) ;
#184 =( GEOMETRIC_REPRESENTATION_CONTEXT ( 3 ) GLOBAL_UNCERTAINTY_ASSIGNED_CONTEXT ( ( #87 ) ) GLOBAL_UNIT_ASSIGNED_CONTEXT ( ( #166, #192, #148 ) ) REPRESENTATION_CONTEXT ( 'NONE', 'WORKASPACE' ) );
#185 = DIRECTION ( 'NONE',  ( 1.000000000000000000, 0.000000000000000000, 0.000000000000000000 ) ) ;
#186 = FACE_OUTER_BOUND ( 'NONE', #3, .T. ) ;
#187 = EDGE_CURVE ( 'NONE', #151, #73, #179, .T. ) ;
#188 = CARTESIAN_POINT ( 'NONE',  ( 0.000000000000000000, 0.000000000000000000, 0.000000000000000000 ) ) ;
#189 = APPROVAL ( #124, 'NEURÈENÝ' ) ;
#190 = APPLICATION_PROTOCOL_DEFINITION ( 'international standard', 'config_control_design', 1994, #21 ) ;
#191 = ADVANCED_FACE ( 'NONE', ( #280 ), #143, .F. ) ;
#192 =( NAMED_UNIT ( * ) PLANE_ANGLE_UNIT ( ) SI_UNIT ( $, .RADIAN. ) );
#193 = PERSON ( 'NEURÈENÝ', 'NEURÈENÝ', 'NEURÈENÝ', ('NEURÈENÝ'), ('NEURÈENÝ'), ('NEURÈENÝ') ) ;
#194 = CIRCLE ( 'NONE', #265, 0.1999999999999996503 ) ;
#195 = VECTOR ( 'NONE', #287, 1000.000000000000000 ) ;
#196 = PERSON_AND_ORGANIZATION ( #193, #69 ) ;
#197 = EDGE_CURVE ( 'NONE', #243, #201, #45, .T. ) ;
#198 = DATE_TIME_ROLE ( 'classification_date' ) ;
#199 = DIRECTION ( 'NONE',  ( -1.000000000000000000, 1.224646799147353454E-16, 0.000000000000000000 ) ) ;
#200 = CARTESIAN_POINT ( 'NONE',  ( -6.200000000000001066, 7.592810154713590821E-16, 7.199999999999984190 ) ) ;
#201 = VERTEX_POINT ( 'NONE', #261 ) ;
#202 = DIRECTION ( 'NONE',  ( 0.000000000000000000, -1.000000000000000000, 0.000000000000000000 ) ) ;
#203 = AXIS2_PLACEMENT_3D ( 'NONE', #67, #211, #70 ) ;
#204 = DIRECTION ( 'NONE',  ( 1.000000000000000000, 0.000000000000000000, 0.000000000000000000 ) ) ;
#205 = DIRECTION ( 'NONE',  ( -0.000000000000000000, -0.000000000000000000, -1.000000000000000000 ) ) ;
#206 = FACE_OUTER_BOUND ( 'NONE', #53, .T. ) ;
#207 = AXIS2_PLACEMENT_3D ( 'NONE', #250, #202, #296 ) ;
#208 = FACE_OUTER_BOUND ( 'NONE', #290, .T. ) ;
#209 = EDGE_CURVE ( 'NONE', #238, #39, #32, .T. ) ;
#210 = CARTESIAN_POINT ( 'NONE',  ( -6.000000000000000888, 0.000000000000000000, 407.0000000000000000 ) ) ;
#211 = DIRECTION ( 'NONE',  ( 0.000000000000000000, 0.000000000000000000, 1.000000000000000000 ) ) ;
#212 = DATE_AND_TIME ( #242, #291 ) ;
#213 = ORIENTED_EDGE ( 'NONE', *, *, #187, .F. ) ;
#214 = CALENDAR_DATE ( 2022, 20, 6 ) ;
#215 = ORIENTED_EDGE ( 'NONE', *, *, #209, .T. ) ;
#216 = COORDINATED_UNIVERSAL_TIME_OFFSET ( 1, 0, .AHEAD. ) ;
#217 = EDGE_LOOP ( 'NONE', ( #170, #79, #167, #264 ) ) ;
#218 = AXIS2_PLACEMENT_3D ( 'NONE', #106, #272, #204 ) ;
#219 = CC_DESIGN_APPROVAL ( #85, ( #27 ) ) ;
#220 = COORDINATED_UNIVERSAL_TIME_OFFSET ( 1, 0, .AHEAD. ) ;
#221 = CC_DESIGN_DATE_AND_TIME_ASSIGNMENT ( #49, #142, ( #27 ) ) ;
#222 = CARTESIAN_POINT ( 'NONE',  ( 0.000000000000000000, 0.000000000000000000, 7.000000000000000000 ) ) ;
#223 = EDGE_CURVE ( 'NONE', #247, #127, #88, .T. ) ;
#224 = AXIS2_PLACEMENT_3D ( 'NONE', #154, #11, #226 ) ;
#225 = CALENDAR_DATE ( 2022, 20, 6 ) ;
#226 = DIRECTION ( 'NONE',  ( -1.000000000000000000, 0.000000000000000000, 0.000000000000000000 ) ) ;
#227 = CYLINDRICAL_SURFACE ( 'NONE', #224, 6.000000000000000888 ) ;
#228 = DIRECTION ( 'NONE',  ( 1.224646799147353207E-16, 1.000000000000000000, -0.000000000000000000 ) ) ;
#229 = DIRECTION ( 'NONE',  ( 1.000000000000000000, 0.000000000000000000, 0.000000000000000000 ) ) ;
#230 = DIRECTION ( 'NONE',  ( 0.000000000000000000, 0.000000000000000000, 1.000000000000000000 ) ) ;
#231 = PLANE ( 'NONE',  #28 ) ;
#232 = DIRECTION ( 'NONE',  ( -0.000000000000000000, -0.000000000000000000, -1.000000000000000000 ) ) ;
#233 = AXIS2_PLACEMENT_3D ( 'NONE', #278, #152, #252 ) ;
#234 = AXIS2_PLACEMENT_3D ( 'NONE', #306, #257, #236 ) ;
#235 = CARTESIAN_POINT ( 'NONE',  ( 0.000000000000000000, 0.000000000000000000, 0.000000000000000000 ) ) ;
#236 = DIRECTION ( 'NONE',  ( -1.000000000000000000, 0.000000000000000000, 0.000000000000000000 ) ) ;
#237 = APPROVAL_DATE_TIME ( #52, #85 ) ;
#238 = VERTEX_POINT ( 'NONE', #258 ) ;
#239 = CIRCLE ( 'NONE', #174, 6.000000000000000888 ) ;
#240 = PERSON_AND_ORGANIZATION_ROLE ( 'classification_officer' ) ;
#241 = ORIENTED_EDGE ( 'NONE', *, *, #25, .T. ) ;
#242 = CALENDAR_DATE ( 2022, 20, 6 ) ;
#243 = VERTEX_POINT ( 'NONE', #183 ) ;
#244 = PERSON_AND_ORGANIZATION ( #193, #69 ) ;
#245 = EDGE_CURVE ( 'NONE', #127, #180, #110, .T. ) ;
#246 = EDGE_LOOP ( 'NONE', ( #172, #95, #84, #101 ) ) ;
#247 = VERTEX_POINT ( 'NONE', #210 ) ;
#248 = EDGE_CURVE ( 'NONE', #151, #243, #284, .T. ) ;
#249 = DIRECTION ( 'NONE',  ( -0.000000000000000000, -0.000000000000000000, -1.000000000000000000 ) ) ;
#250 = CARTESIAN_POINT ( 'NONE',  ( 6.200000000000001066, 0.000000000000000000, 7.199999999999984190 ) ) ;
#251 = AXIS2_PLACEMENT_3D ( 'NONE', #138, #19, #160 ) ;
#252 = DIRECTION ( 'NONE',  ( 1.000000000000000000, 0.000000000000000000, -0.000000000000000000 ) ) ;
#253 = FACE_BOUND ( 'NONE', #121, .T. ) ;
#254 = ORIENTED_EDGE ( 'NONE', *, *, #248, .F. ) ;
#255 = DIRECTION ( 'NONE',  ( 1.000000000000000000, 0.000000000000000000, 0.000000000000000000 ) ) ;
#256 = CC_DESIGN_PERSON_AND_ORGANIZATION_ASSIGNMENT ( #269, #289, ( #27 ) ) ;
#257 = DIRECTION ( 'NONE',  ( -0.000000000000000000, -0.000000000000000000, -1.000000000000000000 ) ) ;
#258 = CARTESIAN_POINT ( 'NONE',  ( 6.200000000000001066, 0.000000000000000000, 6.999999999999992006 ) ) ;
#259 = FACE_OUTER_BOUND ( 'NONE', #295, .T. ) ;
#260 = CIRCLE ( 'NONE', #203, 6.000000000000000888 ) ;
#261 = CARTESIAN_POINT ( 'NONE',  ( 9.000000000000000000, 1.102182119232617714E-15, 0.000000000000000000 ) ) ;
#262 = COORDINATED_UNIVERSAL_TIME_OFFSET ( 1, 0, .AHEAD. ) ;
#263 = CALENDAR_DATE ( 2022, 20, 6 ) ;
#264 = ORIENTED_EDGE ( 'NONE', *, *, #44, .T. ) ;
#265 = AXIS2_PLACEMENT_3D ( 'NONE', #200, #228, #199 ) ;
#266 = APPROVAL_STATUS ( 'not_yet_approved' ) ;
#267 = EDGE_CURVE ( 'NONE', #127, #247, #260, .T. ) ;
#268 = ORIENTED_EDGE ( 'NONE', *, *, #187, .T. ) ;
#269 = PERSON_AND_ORGANIZATION ( #193, #69 ) ;
#270 = CIRCLE ( 'NONE', #218, 6.000000000000000888 ) ;
#271 = ORIENTED_EDGE ( 'NONE', *, *, #4, .T. ) ;
#272 = DIRECTION ( 'NONE',  ( 0.000000000000000000, 0.000000000000000000, 1.000000000000000000 ) ) ;
#273 = COORDINATED_UNIVERSAL_TIME_OFFSET ( 1, 0, .AHEAD. ) ;
#274 = DIRECTION ( 'NONE',  ( 1.000000000000000000, 0.000000000000000000, 0.000000000000000000 ) ) ;
#275 = LOCAL_TIME ( 11, 32, 38.00000000000000000, #220 ) ;
#276 = DIRECTION ( 'NONE',  ( -0.000000000000000000, -0.000000000000000000, -1.000000000000000000 ) ) ;
#277 = ADVANCED_FACE ( 'NONE', ( #158 ), #112, .T. ) ;
#278 = CARTESIAN_POINT ( 'NONE',  ( 0.000000000000000000, 0.000000000000000000, 7.000000000000000000 ) ) ;
#279 = CC_DESIGN_PERSON_AND_ORGANIZATION_ASSIGNMENT ( #196, #2, ( #97 ) ) ;
#280 = FACE_OUTER_BOUND ( 'NONE', #246, .T. ) ;
#281 = ADVANCED_FACE ( 'NONE', ( #206 ), #303, .F. ) ;
#282 = AXIS2_PLACEMENT_3D ( 'NONE', #42, #136, #285 ) ;
#283 = AXIS2_PLACEMENT_3D ( 'NONE', #188, #46, #185 ) ;
#284 = LINE ( 'NONE', #26, #195 ) ;
#285 = DIRECTION ( 'NONE',  ( 1.000000000000000000, 0.000000000000000000, 0.000000000000000000 ) ) ;
#286 = DIRECTION ( 'NONE',  ( 1.000000000000000000, 0.000000000000000000, 0.000000000000000000 ) ) ;
#287 = DIRECTION ( 'NONE',  ( -0.000000000000000000, -0.000000000000000000, -1.000000000000000000 ) ) ;
#288 = PERSON_AND_ORGANIZATION ( #193, #69 ) ;
#289 = PERSON_AND_ORGANIZATION_ROLE ( 'creator' ) ;
#290 = EDGE_LOOP ( 'NONE', ( #149, #16, #145, #254 ) ) ;
#291 = LOCAL_TIME ( 11, 32, 38.00000000000000000, #216 ) ;
#292 = PERSON_AND_ORGANIZATION_ROLE ( 'design_supplier' ) ;
#293 = ORIENTED_EDGE ( 'NONE', *, *, #59, .F. ) ;
#294 = DIRECTION ( 'NONE',  ( 1.000000000000000000, 0.000000000000000000, 0.000000000000000000 ) ) ;
#295 = EDGE_LOOP ( 'NONE', ( #75, #60 ) ) ;
#296 = DIRECTION ( 'NONE',  ( 0.000000000000000000, 0.000000000000000000, -1.000000000000000000 ) ) ;
#297 = ADVANCED_FACE ( 'NONE', ( #186 ), #82, .F. ) ;
#298 = CC_DESIGN_APPROVAL ( #189, ( #153 ) ) ;
#299 = EDGE_LOOP ( 'NONE', ( #268, #241 ) ) ;
#300 = ORIENTED_EDGE ( 'NONE', *, *, #54, .T. ) ;
#301 = CARTESIAN_POINT ( 'NONE',  ( 6.000000000000000888, 7.347880794884120722E-16, 407.0000000000000000 ) ) ;
#302 = LOCAL_TIME ( 11, 32, 38.00000000000000000, #262 ) ;
#303 = PLANE ( 'NONE',  #168 ) ;
#304 = CC_DESIGN_PERSON_AND_ORGANIZATION_ASSIGNMENT ( #119, #5, ( #48 ) ) ;
#305 = CARTESIAN_POINT ( 'NONE',  ( 0.000000000000000000, 0.000000000000000000, 7.199999999999984190 ) ) ;
#306 = CARTESIAN_POINT ( 'NONE',  ( 0.000000000000000000, 0.000000000000000000, 7.000000000000000000 ) ) ;
#307 = ADVANCED_FACE ( 'NONE', ( #208 ), #141, .T. ) ;
ENDSEC;
END-ISO-10303-21;
