ISO-10303-21;
HEADER;
FILE_DESCRIPTION (( 'STEP AP203' ),
    '1' );
FILE_NAME ('2019.STEP',
    '2022-06-20T10:02:05',
    ( '' ),
    ( '' ),
    'SwSTEP 2.0',
    'SolidWorks 2019',
    '' );
FILE_SCHEMA (( 'CONFIG_CONTROL_DESIGN' ));
ENDSEC;

DATA;
#1 = DIRECTION ( 'NONE',  ( 0.000000000000000000, 0.000000000000000000, 1.000000000000000000 ) ) ;
#2 = PERSON_AND_ORGANIZATION_ROLE ( 'design_supplier' ) ;
#3 = DIRECTION ( 'NONE',  ( 1.000000000000000000, 0.000000000000000000, -0.000000000000000000 ) ) ;
#4 = APPROVAL ( #252, 'NEURÈENÝ' ) ;
#5 = FACE_OUTER_BOUND ( 'NONE', #185, .T. ) ;
#6 = ORIENTED_EDGE ( 'NONE', *, *, #237, .T. ) ;
#7 = DIRECTION ( 'NONE',  ( -1.000000000000000000, 0.000000000000000000, 0.000000000000000000 ) ) ;
#8 = AXIS2_PLACEMENT_3D ( 'NONE', #256, #182, #250 ) ;
#9 = DIRECTION ( 'NONE',  ( 0.000000000000000000, 0.000000000000000000, -1.000000000000000000 ) ) ;
#10 = ADVANCED_FACE ( 'NONE', ( #305 ), #162, .T. ) ;
#11 = ADVANCED_FACE ( 'NONE', ( #118, #5 ), #116, .T. ) ;
#12 = CIRCLE ( 'NONE', #110, 5.000000000000000000 ) ;
#13 = DIRECTION ( 'NONE',  ( 1.000000000000000000, 0.000000000000000000, 0.000000000000000000 ) ) ;
#14 = EDGE_LOOP ( 'NONE', ( #43, #6, #147, #297 ) ) ;
#15 = FACE_OUTER_BOUND ( 'NONE', #229, .T. ) ;
#16 = ORIENTED_EDGE ( 'NONE', *, *, #28, .T. ) ;
#17 = DIRECTION ( 'NONE',  ( 1.000000000000000000, 0.000000000000000000, -0.000000000000000000 ) ) ;
#18 = ORIENTED_EDGE ( 'NONE', *, *, #163, .F. ) ;
#19 = ADVANCED_FACE ( 'NONE', ( #279 ), #232, .F. ) ;
#20 = CARTESIAN_POINT ( 'NONE',  ( 0.000000000000000000, 0.000000000000000000, 3.200000000000008171 ) ) ;
#21 = AXIS2_PLACEMENT_3D ( 'NONE', #67, #30, #132 ) ;
#22 = EDGE_LOOP ( 'NONE', ( #159, #38, #71, #281 ) ) ;
#23 = DIRECTION ( 'NONE',  ( 0.000000000000000000, 0.000000000000000000, 1.000000000000000000 ) ) ;
#24 = DIRECTION ( 'NONE',  ( 0.000000000000000000, 0.000000000000000000, 1.000000000000000000 ) ) ;
#25 = AXIS2_PLACEMENT_3D ( 'NONE', #99, #164, #267 ) ;
#26 =( NAMED_UNIT ( * ) SI_UNIT ( $, .STERADIAN. ) SOLID_ANGLE_UNIT ( ) );
#27 = ORIENTED_EDGE ( 'NONE', *, *, #49, .T. ) ;
#28 = EDGE_CURVE ( 'NONE', #170, #29, #284, .T. ) ;
#29 = VERTEX_POINT ( 'NONE', #234 ) ;
#30 = DIRECTION ( 'NONE',  ( 0.000000000000000000, 0.000000000000000000, 1.000000000000000000 ) ) ;
#31 = CC_DESIGN_APPROVAL ( #239, ( #228 ) ) ;
#32 = ADVANCED_FACE ( 'NONE', ( #94 ), #139, .F. ) ;
#33 = CARTESIAN_POINT ( 'NONE',  ( -5.000000000000000000, 0.000000000000000000, 0.000000000000000000 ) ) ;
#34 = DATE_AND_TIME ( #142, #293 ) ;
#35 = LINE ( 'NONE', #221, #202 ) ;
#36 = EDGE_CURVE ( 'NONE', #126, #106, #117, .T. ) ;
#37 = CARTESIAN_POINT ( 'NONE',  ( -5.000000000000000000, 0.000000000000000000, 3.000000000000000000 ) ) ;
#38 = ORIENTED_EDGE ( 'NONE', *, *, #276, .F. ) ;
#39 = CARTESIAN_POINT ( 'NONE',  ( -2.600000000000000089, 0.000000000000000000, 203.0000000000000000 ) ) ;
#40 = AXIS2_PLACEMENT_3D ( 'NONE', #105, #69, #278 ) ;
#41 = UNCERTAINTY_MEASURE_WITH_UNIT (LENGTH_MEASURE( 1.000000000000000082E-05 ), #303, 'distance_accuracy_value', 'NONE');
#42 = CARTESIAN_POINT ( 'NONE',  ( 2.799999999999999822, 0.000000000000000000, 3.000000000000004441 ) ) ;
#43 = ORIENTED_EDGE ( 'NONE', *, *, #299, .F. ) ;
#44 = EDGE_CURVE ( 'NONE', #301, #231, #12, .T. ) ;
#45 = EDGE_CURVE ( 'NONE', #231, #301, #80, .T. ) ;
#46 = APPROVAL ( #205, 'NEURÈENÝ' ) ;
#47 = DIRECTION ( 'NONE',  ( -0.000000000000000000, -0.000000000000000000, -1.000000000000000000 ) ) ;
#48 = PERSON_AND_ORGANIZATION ( #273, #115 ) ;
#49 = EDGE_CURVE ( 'NONE', #83, #271, #188, .T. ) ;
#50 = AXIS2_PLACEMENT_3D ( 'NONE', #294, #165, #172 ) ;
#51 = ORIENTED_EDGE ( 'NONE', *, *, #28, .F. ) ;
#52 = ORIENTED_EDGE ( 'NONE', *, *, #70, .T. ) ;
#53 = ORIENTED_EDGE ( 'NONE', *, *, #44, .T. ) ;
#54 = PRODUCT ( '2019', '2019', '', ( #178 ) ) ;
#55 = CALENDAR_DATE ( 2022, 20, 6 ) ;
#56 = CARTESIAN_POINT ( 'NONE',  ( 2.600000000000000089, 3.184081677783118191E-16, 203.0000000000000000 ) ) ;
#57 = DIRECTION ( 'NONE',  ( 0.000000000000000000, 0.000000000000000000, 1.000000000000000000 ) ) ;
#58 = DATE_AND_TIME ( #55, #81 ) ;
#59 =( GEOMETRIC_REPRESENTATION_CONTEXT ( 3 ) GLOBAL_UNCERTAINTY_ASSIGNED_CONTEXT ( ( #41 ) ) GLOBAL_UNIT_ASSIGNED_CONTEXT ( ( #303, #111, #26 ) ) REPRESENTATION_CONTEXT ( 'NONE', 'WORKASPACE' ) );
#60 = CIRCLE ( 'NONE', #50, 2.600000000000000089 ) ;
#61 = DIRECTION ( 'NONE',  ( -0.000000000000000000, -0.000000000000000000, -1.000000000000000000 ) ) ;
#62 = DIRECTION ( 'NONE',  ( 0.000000000000000000, 0.000000000000000000, 1.000000000000000000 ) ) ;
#63 = CIRCLE ( 'NONE', #161, 2.600000000000000089 ) ;
#64 = DIRECTION ( 'NONE',  ( 1.000000000000000000, 0.000000000000000000, 0.000000000000000000 ) ) ;
#65 = DATE_AND_TIME ( #275, #191 ) ;
#66 = CARTESIAN_POINT ( 'NONE',  ( 0.000000000000000000, 0.000000000000000000, 0.000000000000000000 ) ) ;
#67 = CARTESIAN_POINT ( 'NONE',  ( 0.000000000000000000, 0.000000000000000000, 3.200000000000008171 ) ) ;
#68 = ORIENTED_EDGE ( 'NONE', *, *, #49, .F. ) ;
#69 = DIRECTION ( 'NONE',  ( -0.000000000000000000, -0.000000000000000000, -1.000000000000000000 ) ) ;
#70 = EDGE_CURVE ( 'NONE', #193, #170, #60, .T. ) ;
#71 = ORIENTED_EDGE ( 'NONE', *, *, #109, .T. ) ;
#72 = AXIS2_PLACEMENT_3D ( 'NONE', #86, #61, #211 ) ;
#73 = EDGE_LOOP ( 'NONE', ( #51, #241, #222, #200 ) ) ;
#74 = PERSON_AND_ORGANIZATION_ROLE ( 'classification_officer' ) ;
#75 = DIRECTION ( 'NONE',  ( -0.000000000000000000, -0.000000000000000000, -1.000000000000000000 ) ) ;
#76 = AXIS2_PLACEMENT_3D ( 'NONE', #287, #96, #251 ) ;
#77 = FACE_OUTER_BOUND ( 'NONE', #137, .T. ) ;
#78 = PERSON_AND_ORGANIZATION ( #273, #115 ) ;
#79 = CIRCLE ( 'NONE', #218, 0.2000000000000000944 ) ;
#80 = CIRCLE ( 'NONE', #246, 5.000000000000000000 ) ;
#81 = LOCAL_TIME ( 12, 2, 5.000000000000000000, #264 ) ;
#82 = CYLINDRICAL_SURFACE ( 'NONE', #238, 5.000000000000000000 ) ;
#83 = VERTEX_POINT ( 'NONE', #209 ) ;
#84 = LINE ( 'NONE', #39, #285 ) ;
#85 = CC_DESIGN_DATE_AND_TIME_ASSIGNMENT ( #34, #166, ( #102 ) ) ;
#86 = CARTESIAN_POINT ( 'NONE',  ( 0.000000000000000000, 0.000000000000000000, 203.0000000000000000 ) ) ;
#87 = ORIENTED_EDGE ( 'NONE', *, *, #44, .F. ) ;
#88 = EDGE_LOOP ( 'NONE', ( #52, #255 ) ) ;
#89 = APPLICATION_PROTOCOL_DEFINITION ( 'international standard', 'config_control_design', 1994, #220 ) ;
#90 = COORDINATED_UNIVERSAL_TIME_OFFSET ( 1, 0, .AHEAD. ) ;
#91 = EDGE_LOOP ( 'NONE', ( #158, #206, #135, #258 ) ) ;
#92 = ORIENTED_EDGE ( 'NONE', *, *, #214, .F. ) ;
#93 = AXIS2_PLACEMENT_3D ( 'NONE', #98, #186, #3 ) ;
#94 = FACE_OUTER_BOUND ( 'NONE', #14, .T. ) ;
#95 = APPROVAL_DATE_TIME ( #58, #46 ) ;
#96 = DIRECTION ( 'NONE',  ( 0.000000000000000000, 0.000000000000000000, 1.000000000000000000 ) ) ;
#97 = APPROVAL_PERSON_ORGANIZATION ( #307, #4, #277 ) ;
#98 = CARTESIAN_POINT ( 'NONE',  ( 0.000000000000000000, 0.000000000000000000, 3.000000000000000000 ) ) ;
#99 = CARTESIAN_POINT ( 'NONE',  ( 0.000000000000000000, 0.000000000000000000, 203.0000000000000000 ) ) ;
#100 = SECURITY_CLASSIFICATION_LEVEL ( 'unclassified' ) ;
#101 = FACE_OUTER_BOUND ( 'NONE', #73, .T. ) ;
#102 = SECURITY_CLASSIFICATION ( '', '', #100 ) ;
#103 = CC_DESIGN_PERSON_AND_ORGANIZATION_ASSIGNMENT ( #196, #181, ( #54 ) ) ;
#104 = CIRCLE ( 'NONE', #223, 5.000000000000000000 ) ;
#105 = CARTESIAN_POINT ( 'NONE',  ( 0.000000000000000000, 0.000000000000000000, 3.000000000000000000 ) ) ;
#106 = VERTEX_POINT ( 'NONE', #146 ) ;
#107 = DIRECTION ( 'NONE',  ( -0.000000000000000000, -0.000000000000000000, -1.000000000000000000 ) ) ;
#108 = CARTESIAN_POINT ( 'NONE',  ( -2.600000000000000089, 0.000000000000000000, 203.0000000000000000 ) ) ;
#109 = EDGE_CURVE ( 'NONE', #29, #126, #177, .T. ) ;
#110 = AXIS2_PLACEMENT_3D ( 'NONE', #156, #130, #225 ) ;
#111 =( NAMED_UNIT ( * ) PLANE_ANGLE_UNIT ( ) SI_UNIT ( $, .RADIAN. ) );
#112 = CARTESIAN_POINT ( 'NONE',  ( 0.000000000000000000, 0.000000000000000000, 3.000000000000000000 ) ) ;
#113 = DATE_AND_TIME ( #153, #155 ) ;
#114 = DIRECTION ( 'NONE',  ( 1.000000000000000000, 0.000000000000000000, 0.000000000000000000 ) ) ;
#115 = ORGANIZATION ( 'NEURÈENÝ', 'NEURÈENÝ', '' ) ;
#116 = PLANE ( 'NONE',  #93 ) ;
#117 = CIRCLE ( 'NONE', #167, 2.799999999999999822 ) ;
#118 = FACE_BOUND ( 'NONE', #204, .T. ) ;
#119 = DIRECTION ( 'NONE',  ( 1.000000000000000000, 0.000000000000000000, 0.000000000000000000 ) ) ;
#120 = FACE_OUTER_BOUND ( 'NONE', #197, .T. ) ;
#121 = PLANE ( 'NONE',  #134 ) ;
#122 = EDGE_CURVE ( 'NONE', #193, #152, #84, .T. ) ;
#123 = CYLINDRICAL_SURFACE ( 'NONE', #144, 5.000000000000000000 ) ;
#124 = CIRCLE ( 'NONE', #168, 2.600000000000000089 ) ;
#125 = CYLINDRICAL_SURFACE ( 'NONE', #72, 2.600000000000000089 ) ;
#126 = VERTEX_POINT ( 'NONE', #42 ) ;
#127 = DIRECTION ( 'NONE',  ( -0.000000000000000000, -0.000000000000000000, -1.000000000000000000 ) ) ;
#128 = CC_DESIGN_PERSON_AND_ORGANIZATION_ASSIGNMENT ( #48, #226, ( #257 ) ) ;
#129 = APPROVAL_DATE_TIME ( #176, #4 ) ;
#130 = DIRECTION ( 'NONE',  ( 0.000000000000000000, 0.000000000000000000, 1.000000000000000000 ) ) ;
#131 = CLOSED_SHELL ( 'NONE', ( #32, #149, #272, #230, #11, #136, #212, #10, #19 ) ) ;
#132 = DIRECTION ( 'NONE',  ( 1.000000000000000000, 0.000000000000000000, 0.000000000000000000 ) ) ;
#133 = DIRECTION ( 'NONE',  ( 0.000000000000000000, 0.000000000000000000, 1.000000000000000000 ) ) ;
#134 = AXIS2_PLACEMENT_3D ( 'NONE', #260, #171, #17 ) ;
#135 = ORIENTED_EDGE ( 'NONE', *, *, #254, .T. ) ;
#136 = ADVANCED_FACE ( 'NONE', ( #15 ), #121, .F. ) ;
#137 = EDGE_LOOP ( 'NONE', ( #92, #16, #207, #184 ) ) ;
#138 = PERSON_AND_ORGANIZATION ( #273, #115 ) ;
#139 = TOROIDAL_SURFACE ( 'NONE', #21, 2.799999999999999822, 0.2000000000000000111 ) ;
#140 = CARTESIAN_POINT ( 'NONE',  ( 2.600000000000000089, 3.184081677783118191E-16, 203.0000000000000000 ) ) ;
#141 = DIRECTION ( 'NONE',  ( 1.224646799147353207E-16, 1.000000000000000000, -0.000000000000000000 ) ) ;
#142 = CALENDAR_DATE ( 2022, 20, 6 ) ;
#143 = CARTESIAN_POINT ( 'NONE',  ( -2.600000000000000089, 0.000000000000000000, 3.200000000000008171 ) ) ;
#144 = AXIS2_PLACEMENT_3D ( 'NONE', #169, #215, #189 ) ;
#145 = CC_DESIGN_PERSON_AND_ORGANIZATION_ASSIGNMENT ( #78, #74, ( #102 ) ) ;
#146 = CARTESIAN_POINT ( 'NONE',  ( -2.799999999999999822, 3.429011037612589276E-16, 3.000000000000004441 ) ) ;
#147 = ORIENTED_EDGE ( 'NONE', *, *, #36, .F. ) ;
#148 = CARTESIAN_POINT ( 'NONE',  ( 2.799999999999999822, 0.000000000000000000, 3.200000000000008171 ) ) ;
#149 = ADVANCED_FACE ( 'NONE', ( #77 ), #125, .T. ) ;
#150 = APPROVAL_PERSON_ORGANIZATION ( #300, #239, #274 ) ;
#151 = FACE_OUTER_BOUND ( 'NONE', #91, .T. ) ;
#152 = VERTEX_POINT ( 'NONE', #143 ) ;
#153 = CALENDAR_DATE ( 2022, 20, 6 ) ;
#154 = COORDINATED_UNIVERSAL_TIME_OFFSET ( 1, 0, .AHEAD. ) ;
#155 = LOCAL_TIME ( 12, 2, 5.000000000000000000, #154 ) ;
#156 = CARTESIAN_POINT ( 'NONE',  ( 0.000000000000000000, 0.000000000000000000, 3.000000000000000000 ) ) ;
#157 = APPROVAL_STATUS ( 'not_yet_approved' ) ;
#158 = ORIENTED_EDGE ( 'NONE', *, *, #195, .F. ) ;
#159 = ORIENTED_EDGE ( 'NONE', *, *, #237, .F. ) ;
#160 = CARTESIAN_POINT ( 'NONE',  ( 0.000000000000000000, 0.000000000000000000, 3.000000000000000000 ) ) ;
#161 = AXIS2_PLACEMENT_3D ( 'NONE', #20, #133, #224 ) ;
#162 = PLANE ( 'NONE',  #8 ) ;
#163 = EDGE_CURVE ( 'NONE', #271, #83, #104, .T. ) ;
#164 = DIRECTION ( 'NONE',  ( 0.000000000000000000, 0.000000000000000000, 1.000000000000000000 ) ) ;
#165 = DIRECTION ( 'NONE',  ( 0.000000000000000000, 0.000000000000000000, 1.000000000000000000 ) ) ;
#166 = DATE_TIME_ROLE ( 'classification_date' ) ;
#167 = AXIS2_PLACEMENT_3D ( 'NONE', #160, #227, #119 ) ;
#168 = AXIS2_PLACEMENT_3D ( 'NONE', #263, #57, #13 ) ;
#169 = CARTESIAN_POINT ( 'NONE',  ( 0.000000000000000000, 0.000000000000000000, 3.000000000000000000 ) ) ;
#170 = VERTEX_POINT ( 'NONE', #56 ) ;
#171 = DIRECTION ( 'NONE',  ( 0.000000000000000000, 0.000000000000000000, 1.000000000000000000 ) ) ;
#172 = DIRECTION ( 'NONE',  ( 1.000000000000000000, 0.000000000000000000, 0.000000000000000000 ) ) ;
#173 = ORIENTED_EDGE ( 'NONE', *, *, #254, .F. ) ;
#174 = AXIS2_PLACEMENT_3D ( 'NONE', #148, #289, #9 ) ;
#175 = AXIS2_PLACEMENT_3D ( 'NONE', #219, #75, #190 ) ;
#176 = DATE_AND_TIME ( #304, #266 ) ;
#177 = CIRCLE ( 'NONE', #174, 0.2000000000000000944 ) ;
#178 = MECHANICAL_CONTEXT ( 'NONE', #220, 'mechanical' ) ;
#179 = DATE_TIME_ROLE ( 'creation_date' ) ;
#180 = ORIENTED_EDGE ( 'NONE', *, *, #195, .T. ) ;
#181 = PERSON_AND_ORGANIZATION_ROLE ( 'design_owner' ) ;
#182 = DIRECTION ( 'NONE',  ( 0.000000000000000000, 0.000000000000000000, 1.000000000000000000 ) ) ;
#183 = CC_DESIGN_PERSON_AND_ORGANIZATION_ASSIGNMENT ( #138, #2, ( #228 ) ) ;
#184 = ORIENTED_EDGE ( 'NONE', *, *, #122, .F. ) ;
#185 = EDGE_LOOP ( 'NONE', ( #244, #53 ) ) ;
#186 = DIRECTION ( 'NONE',  ( 0.000000000000000000, 0.000000000000000000, 1.000000000000000000 ) ) ;
#187 = CC_DESIGN_PERSON_AND_ORGANIZATION_ASSIGNMENT ( #247, #261, ( #228 ) ) ;
#188 = CIRCLE ( 'NONE', #296, 5.000000000000000000 ) ;
#189 = DIRECTION ( 'NONE',  ( -1.000000000000000000, 0.000000000000000000, 0.000000000000000000 ) ) ;
#190 = DIRECTION ( 'NONE',  ( -1.000000000000000000, 0.000000000000000000, 0.000000000000000000 ) ) ;
#191 = LOCAL_TIME ( 12, 2, 5.000000000000000000, #90 ) ;
#192 = CARTESIAN_POINT ( 'NONE',  ( -5.000000000000000000, 0.000000000000000000, 3.000000000000000000 ) ) ;
#193 = VERTEX_POINT ( 'NONE', #108 ) ;
#194 = CARTESIAN_POINT ( 'NONE',  ( 0.000000000000000000, 0.000000000000000000, 3.000000000000000000 ) ) ;
#195 = EDGE_CURVE ( 'NONE', #301, #83, #35, .T. ) ;
#196 = PERSON_AND_ORGANIZATION ( #273, #115 ) ;
#197 = EDGE_LOOP ( 'NONE', ( #87, #180, #27, #173 ) ) ;
#198 = CC_DESIGN_APPROVAL ( #4, ( #257 ) ) ;
#199 = CARTESIAN_POINT ( 'NONE',  ( 5.000000000000000000, 6.123233995736766282E-16, 3.000000000000000000 ) ) ;
#200 = ORIENTED_EDGE ( 'NONE', *, *, #299, .T. ) ;
#201 = APPROVAL_DATE_TIME ( #113, #239 ) ;
#202 = VECTOR ( 'NONE', #107, 1000.000000000000000 ) ;
#203 = CARTESIAN_POINT ( 'NONE',  ( 0.000000000000000000, 0.000000000000000000, 0.000000000000000000 ) ) ;
#204 = EDGE_LOOP ( 'NONE', ( #268, #216 ) ) ;
#205 = APPROVAL_STATUS ( 'not_yet_approved' ) ;
#206 = ORIENTED_EDGE ( 'NONE', *, *, #45, .F. ) ;
#207 = ORIENTED_EDGE ( 'NONE', *, *, #276, .T. ) ;
#208 = APPROVAL_PERSON_ORGANIZATION ( #259, #46, #233 ) ;
#209 = CARTESIAN_POINT ( 'NONE',  ( 5.000000000000000000, 6.123233995736766282E-16, 0.000000000000000000 ) ) ;
#210 = PRODUCT_DEFINITION_SHAPE ( 'NONE', 'NONE',  #257 ) ;
#211 = DIRECTION ( 'NONE',  ( -1.000000000000000000, 0.000000000000000000, 0.000000000000000000 ) ) ;
#212 = ADVANCED_FACE ( 'NONE', ( #101 ), #242, .T. ) ;
#213 = AXIS2_PLACEMENT_3D ( 'NONE', #66, #23, #64 ) ;
#214 = EDGE_CURVE ( 'NONE', #170, #193, #302, .T. ) ;
#215 = DIRECTION ( 'NONE',  ( -0.000000000000000000, -0.000000000000000000, -1.000000000000000000 ) ) ;
#216 = ORIENTED_EDGE ( 'NONE', *, *, #295, .T. ) ;
#217 = MANIFOLD_SOLID_BREP ( 'Zaoblit1', #131 ) ;
#218 = AXIS2_PLACEMENT_3D ( 'NONE', #298, #141, #243 ) ;
#219 = CARTESIAN_POINT ( 'NONE',  ( 0.000000000000000000, 0.000000000000000000, 203.0000000000000000 ) ) ;
#220 = APPLICATION_CONTEXT ( 'configuration controlled 3d designs of mechanical parts and assemblies' ) ;
#221 = CARTESIAN_POINT ( 'NONE',  ( 5.000000000000000000, 6.123233995736766282E-16, 3.000000000000000000 ) ) ;
#222 = ORIENTED_EDGE ( 'NONE', *, *, #122, .T. ) ;
#223 = AXIS2_PLACEMENT_3D ( 'NONE', #270, #62, #240 ) ;
#224 = DIRECTION ( 'NONE',  ( 1.000000000000000000, 0.000000000000000000, 0.000000000000000000 ) ) ;
#225 = DIRECTION ( 'NONE',  ( 1.000000000000000000, 0.000000000000000000, 0.000000000000000000 ) ) ;
#226 = PERSON_AND_ORGANIZATION_ROLE ( 'creator' ) ;
#227 = DIRECTION ( 'NONE',  ( -0.000000000000000000, -0.000000000000000000, -1.000000000000000000 ) ) ;
#228 = PRODUCT_DEFINITION_FORMATION_WITH_SPECIFIED_SOURCE ( 'LIBOVOLNÝ', '', #54, .NOT_KNOWN. ) ;
#229 = EDGE_LOOP ( 'NONE', ( #18, #68 ) ) ;
#230 = ADVANCED_FACE ( 'NONE', ( #151 ), #82, .T. ) ;
#231 = VERTEX_POINT ( 'NONE', #37 ) ;
#232 = TOROIDAL_SURFACE ( 'NONE', #76, 2.799999999999999822, 0.2000000000000000111 ) ;
#233 = APPROVAL_ROLE ( '' ) ;
#234 = CARTESIAN_POINT ( 'NONE',  ( 2.600000000000000089, 3.184081677783118191E-16, 3.200000000000008171 ) ) ;
#235 = DIRECTION ( 'NONE',  ( -0.000000000000000000, -0.000000000000000000, -1.000000000000000000 ) ) ;
#236 = LINE ( 'NONE', #192, #286 ) ;
#237 = EDGE_CURVE ( 'NONE', #152, #106, #79, .T. ) ;
#238 = AXIS2_PLACEMENT_3D ( 'NONE', #194, #269, #7 ) ;
#239 = APPROVAL ( #157, 'NEURÈENÝ' ) ;
#240 = DIRECTION ( 'NONE',  ( 1.000000000000000000, 0.000000000000000000, 0.000000000000000000 ) ) ;
#241 = ORIENTED_EDGE ( 'NONE', *, *, #70, .F. ) ;
#242 = CYLINDRICAL_SURFACE ( 'NONE', #175, 2.600000000000000089 ) ;
#243 = DIRECTION ( 'NONE',  ( -1.000000000000000000, 1.224646799147353207E-16, 0.000000000000000000 ) ) ;
#244 = ORIENTED_EDGE ( 'NONE', *, *, #45, .T. ) ;
#245 = DESIGN_CONTEXT ( 'detailed design', #283, 'design' ) ;
#246 = AXIS2_PLACEMENT_3D ( 'NONE', #112, #24, #114 ) ;
#247 = PERSON_AND_ORGANIZATION ( #273, #115 ) ;
#248 = CC_DESIGN_APPROVAL ( #46, ( #102 ) ) ;
#249 = COORDINATED_UNIVERSAL_TIME_OFFSET ( 1, 0, .AHEAD. ) ;
#250 = DIRECTION ( 'NONE',  ( 1.000000000000000000, 0.000000000000000000, -0.000000000000000000 ) ) ;
#251 = DIRECTION ( 'NONE',  ( 1.000000000000000000, 0.000000000000000000, 0.000000000000000000 ) ) ;
#252 = APPROVAL_STATUS ( 'not_yet_approved' ) ;
#253 = PRODUCT_RELATED_PRODUCT_CATEGORY ( 'detail', '', ( #54 ) ) ;
#254 = EDGE_CURVE ( 'NONE', #231, #271, #236, .T. ) ;
#255 = ORIENTED_EDGE ( 'NONE', *, *, #214, .T. ) ;
#256 = CARTESIAN_POINT ( 'NONE',  ( 0.000000000000000000, 0.000000000000000000, 203.0000000000000000 ) ) ;
#257 = PRODUCT_DEFINITION ( 'NEZNÁMÝ', '', #228, #245 ) ;
#258 = ORIENTED_EDGE ( 'NONE', *, *, #163, .T. ) ;
#259 = PERSON_AND_ORGANIZATION ( #273, #115 ) ;
#260 = CARTESIAN_POINT ( 'NONE',  ( 0.000000000000000000, 0.000000000000000000, 0.000000000000000000 ) ) ;
#261 = PERSON_AND_ORGANIZATION_ROLE ( 'creator' ) ;
#262 = CIRCLE ( 'NONE', #40, 2.799999999999999822 ) ;
#263 = CARTESIAN_POINT ( 'NONE',  ( 0.000000000000000000, 0.000000000000000000, 3.200000000000008171 ) ) ;
#264 = COORDINATED_UNIVERSAL_TIME_OFFSET ( 1, 0, .AHEAD. ) ;
#265 = VECTOR ( 'NONE', #47, 1000.000000000000000 ) ;
#266 = LOCAL_TIME ( 12, 2, 5.000000000000000000, #249 ) ;
#267 = DIRECTION ( 'NONE',  ( 1.000000000000000000, 0.000000000000000000, 0.000000000000000000 ) ) ;
#268 = ORIENTED_EDGE ( 'NONE', *, *, #36, .T. ) ;
#269 = DIRECTION ( 'NONE',  ( -0.000000000000000000, -0.000000000000000000, -1.000000000000000000 ) ) ;
#270 = CARTESIAN_POINT ( 'NONE',  ( 0.000000000000000000, 0.000000000000000000, 0.000000000000000000 ) ) ;
#271 = VERTEX_POINT ( 'NONE', #33 ) ;
#272 = ADVANCED_FACE ( 'NONE', ( #120 ), #123, .T. ) ;
#273 = PERSON ( 'NEURÈENÝ', 'NEURÈENÝ', 'NEURÈENÝ', ('NEURÈENÝ'), ('NEURÈENÝ'), ('NEURÈENÝ') ) ;
#274 = APPROVAL_ROLE ( '' ) ;
#275 = CALENDAR_DATE ( 2022, 20, 6 ) ;
#276 = EDGE_CURVE ( 'NONE', #29, #152, #124, .T. ) ;
#277 = APPROVAL_ROLE ( '' ) ;
#278 = DIRECTION ( 'NONE',  ( 1.000000000000000000, 0.000000000000000000, 0.000000000000000000 ) ) ;
#279 = FACE_OUTER_BOUND ( 'NONE', #22, .T. ) ;
#280 = APPLICATION_PROTOCOL_DEFINITION ( 'international standard', 'config_control_design', 1994, #283 ) ;
#281 = ORIENTED_EDGE ( 'NONE', *, *, #295, .F. ) ;
#282 = CC_DESIGN_DATE_AND_TIME_ASSIGNMENT ( #65, #179, ( #257 ) ) ;
#283 = APPLICATION_CONTEXT ( 'configuration controlled 3d designs of mechanical parts and assemblies' ) ;
#284 = LINE ( 'NONE', #140, #265 ) ;
#285 = VECTOR ( 'NONE', #127, 1000.000000000000000 ) ;
#286 = VECTOR ( 'NONE', #235, 1000.000000000000000 ) ;
#287 = CARTESIAN_POINT ( 'NONE',  ( 0.000000000000000000, 0.000000000000000000, 3.200000000000008171 ) ) ;
#288 = COORDINATED_UNIVERSAL_TIME_OFFSET ( 1, 0, .AHEAD. ) ;
#289 = DIRECTION ( 'NONE',  ( 0.000000000000000000, -1.000000000000000000, 0.000000000000000000 ) ) ;
#290 = SHAPE_DEFINITION_REPRESENTATION ( #210, #292 ) ;
#291 = DIRECTION ( 'NONE',  ( 1.000000000000000000, 0.000000000000000000, 0.000000000000000000 ) ) ;
#292 = ADVANCED_BREP_SHAPE_REPRESENTATION ( '2019', ( #217, #213 ), #59 ) ;
#293 = LOCAL_TIME ( 12, 2, 5.000000000000000000, #288 ) ;
#294 = CARTESIAN_POINT ( 'NONE',  ( 0.000000000000000000, 0.000000000000000000, 203.0000000000000000 ) ) ;
#295 = EDGE_CURVE ( 'NONE', #106, #126, #262, .T. ) ;
#296 = AXIS2_PLACEMENT_3D ( 'NONE', #203, #1, #291 ) ;
#297 = ORIENTED_EDGE ( 'NONE', *, *, #109, .F. ) ;
#298 = CARTESIAN_POINT ( 'NONE',  ( -2.799999999999999822, 3.429011037612588783E-16, 3.200000000000008171 ) ) ;
#299 = EDGE_CURVE ( 'NONE', #152, #29, #63, .T. ) ;
#300 = PERSON_AND_ORGANIZATION ( #273, #115 ) ;
#301 = VERTEX_POINT ( 'NONE', #199 ) ;
#302 = CIRCLE ( 'NONE', #25, 2.600000000000000089 ) ;
#303 =( LENGTH_UNIT ( ) NAMED_UNIT ( * ) SI_UNIT ( .MILLI., .METRE. ) );
#304 = CALENDAR_DATE ( 2022, 20, 6 ) ;
#305 = FACE_OUTER_BOUND ( 'NONE', #88, .T. ) ;
#306 = CC_DESIGN_SECURITY_CLASSIFICATION ( #102, ( #228 ) ) ;
#307 = PERSON_AND_ORGANIZATION ( #273, #115 ) ;
ENDSEC;
END-ISO-10303-21;
