ISO-10303-21;
HEADER;
FILE_DESCRIPTION (( 'STEP AP203' ),
    '1' );
FILE_NAME ('5e05.STEP',
    '2022-06-20T09:23:11',
    ( '' ),
    ( '' ),
    'SwSTEP 2.0',
    'SolidWorks 2019',
    '' );
FILE_SCHEMA (( 'CONFIG_CONTROL_DESIGN' ));
ENDSEC;

DATA;
#1 = EDGE_CURVE ( 'NONE', #212, #174, #264, .T. ) ;
#2 = EDGE_LOOP ( 'NONE', ( #258, #199, #267, #260 ) ) ;
#3 = CALENDAR_DATE ( 2022, 20, 6 ) ;
#4 = CIRCLE ( 'NONE', #126, 0.2000000000000005107 ) ;
#5 = CARTESIAN_POINT ( 'NONE',  ( 0.000000000000000000, 0.000000000000000000, 7.000000000000000000 ) ) ;
#6 = CARTESIAN_POINT ( 'NONE',  ( -8.000000000000000000, 0.000000000000000000, 7.199999999999984190 ) ) ;
#7 = ADVANCED_FACE ( 'NONE', ( #171 ), #169, .T. ) ;
#8 = CARTESIAN_POINT ( 'NONE',  ( 0.000000000000000000, 0.000000000000000000, 7.000000000000000000 ) ) ;
#9 = FACE_OUTER_BOUND ( 'NONE', #101, .T. ) ;
#10 = DIRECTION ( 'NONE',  ( 0.000000000000000000, 0.000000000000000000, 1.000000000000000000 ) ) ;
#11 = CARTESIAN_POINT ( 'NONE',  ( -8.000000000000000000, 0.000000000000000000, 807.0000000000000000 ) ) ;
#12 = AXIS2_PLACEMENT_3D ( 'NONE', #5, #238, #261 ) ;
#13 = LINE ( 'NONE', #11, #89 ) ;
#14 = VERTEX_POINT ( 'NONE', #150 ) ;
#15 = CARTESIAN_POINT ( 'NONE',  ( 0.000000000000000000, 0.000000000000000000, 7.199999999999984190 ) ) ;
#16 = CARTESIAN_POINT ( 'NONE',  ( 0.000000000000000000, 0.000000000000000000, 0.000000000000000000 ) ) ;
#17 = APPROVAL_ROLE ( '' ) ;
#18 = AXIS2_PLACEMENT_3D ( 'NONE', #175, #180, #132 ) ;
#19 = PERSON_AND_ORGANIZATION ( #290, #43 ) ;
#20 = EDGE_CURVE ( 'NONE', #191, #25, #135, .T. ) ;
#21 = APPROVAL_ROLE ( '' ) ;
#22 = PERSON_AND_ORGANIZATION ( #290, #43 ) ;
#23 = ADVANCED_FACE ( 'NONE', ( #129, #9 ), #219, .T. ) ;
#24 = ORIENTED_EDGE ( 'NONE', *, *, #76, .T. ) ;
#25 = VERTEX_POINT ( 'NONE', #54 ) ;
#26 = DIRECTION ( 'NONE',  ( 0.000000000000000000, -1.000000000000000000, 0.000000000000000000 ) ) ;
#27 = MANIFOLD_SOLID_BREP ( 'Zaoblit1', #213 ) ;
#28 = CARTESIAN_POINT ( 'NONE',  ( 0.000000000000000000, 0.000000000000000000, 7.000000000000000000 ) ) ;
#29 = ADVANCED_BREP_SHAPE_REPRESENTATION ( '5e05', ( #27, #109 ), #265 ) ;
#30 = EDGE_LOOP ( 'NONE', ( #239, #232, #279, #152 ) ) ;
#31 = DIRECTION ( 'NONE',  ( -0.000000000000000000, -0.000000000000000000, -1.000000000000000000 ) ) ;
#32 = PRODUCT_DEFINITION_FORMATION_WITH_SPECIFIED_SOURCE ( 'LIBOVOLNÝ', '', #248, .NOT_KNOWN. ) ;
#33 = ADVANCED_FACE ( 'NONE', ( #263 ), #100, .T. ) ;
#34 = FACE_OUTER_BOUND ( 'NONE', #236, .T. ) ;
#35 = DIRECTION ( 'NONE',  ( 1.000000000000000000, 0.000000000000000000, 0.000000000000000000 ) ) ;
#36 = LINE ( 'NONE', #226, #74 ) ;
#37 = CC_DESIGN_APPROVAL ( #145, ( #210 ) ) ;
#38 = ADVANCED_FACE ( 'NONE', ( #56 ), #282, .T. ) ;
#39 = DIRECTION ( 'NONE',  ( 0.000000000000000000, 0.000000000000000000, 1.000000000000000000 ) ) ;
#40 = PERSON_AND_ORGANIZATION ( #290, #43 ) ;
#41 = APPROVAL_STATUS ( 'not_yet_approved' ) ;
#42 = VERTEX_POINT ( 'NONE', #168 ) ;
#43 = ORGANIZATION ( 'NEURÈENÝ', 'NEURÈENÝ', '' ) ;
#44 = APPROVAL_DATE_TIME ( #255, #200 ) ;
#45 = PERSON_AND_ORGANIZATION ( #290, #43 ) ;
#46 = DATE_AND_TIME ( #278, #64 ) ;
#47 = CC_DESIGN_PERSON_AND_ORGANIZATION_ASSIGNMENT ( #45, #120, ( #32 ) ) ;
#48 = APPROVAL_PERSON_ORGANIZATION ( #233, #159, #21 ) ;
#49 = VERTEX_POINT ( 'NONE', #75 ) ;
#50 = ORIENTED_EDGE ( 'NONE', *, *, #58, .T. ) ;
#51 = AXIS2_PLACEMENT_3D ( 'NONE', #237, #127, #218 ) ;
#52 = ORIENTED_EDGE ( 'NONE', *, *, #118, .T. ) ;
#53 = AXIS2_PLACEMENT_3D ( 'NONE', #16, #112, #275 ) ;
#54 = CARTESIAN_POINT ( 'NONE',  ( 8.200000000000001066, 0.000000000000000000, 6.999999999999992006 ) ) ;
#55 = ORIENTED_EDGE ( 'NONE', *, *, #118, .F. ) ;
#56 = FACE_OUTER_BOUND ( 'NONE', #110, .T. ) ;
#57 = AXIS2_PLACEMENT_3D ( 'NONE', #271, #10, #274 ) ;
#58 = EDGE_CURVE ( 'NONE', #212, #42, #147, .T. ) ;
#59 = DIRECTION ( 'NONE',  ( 1.000000000000000000, 0.000000000000000000, 0.000000000000000000 ) ) ;
#60 = CIRCLE ( 'NONE', #18, 11.00000000000000000 ) ;
#61 = CARTESIAN_POINT ( 'NONE',  ( 8.000000000000000000, 9.797174393178825657E-16, 807.0000000000000000 ) ) ;
#62 = DIRECTION ( 'NONE',  ( -0.000000000000000000, -0.000000000000000000, -1.000000000000000000 ) ) ;
#63 = DIRECTION ( 'NONE',  ( 0.000000000000000000, 0.000000000000000000, 1.000000000000000000 ) ) ;
#64 = LOCAL_TIME ( 11, 23, 11.00000000000000000, #300 ) ;
#65 = DATE_TIME_ROLE ( 'creation_date' ) ;
#66 = APPLICATION_CONTEXT ( 'configuration controlled 3d designs of mechanical parts and assemblies' ) ;
#67 = ORIENTED_EDGE ( 'NONE', *, *, #283, .F. ) ;
#68 = APPROVAL_ROLE ( '' ) ;
#69 = AXIS2_PLACEMENT_3D ( 'NONE', #247, #272, #156 ) ;
#70 = DIRECTION ( 'NONE',  ( 1.000000000000000000, 0.000000000000000000, 0.000000000000000000 ) ) ;
#71 = ORIENTED_EDGE ( 'NONE', *, *, #142, .T. ) ;
#72 = ORIENTED_EDGE ( 'NONE', *, *, #170, .T. ) ;
#73 = AXIS2_PLACEMENT_3D ( 'NONE', #189, #148, #214 ) ;
#74 = VECTOR ( 'NONE', #197, 1000.000000000000000 ) ;
#75 = CARTESIAN_POINT ( 'NONE',  ( -8.200000000000001066, 1.004210375300829674E-15, 6.999999999999992006 ) ) ;
#76 = EDGE_CURVE ( 'NONE', #25, #49, #183, .T. ) ;
#77 = CARTESIAN_POINT ( 'NONE',  ( 8.200000000000001066, 0.000000000000000000, 7.199999999999984190 ) ) ;
#78 = DIRECTION ( 'NONE',  ( -0.000000000000000000, -0.000000000000000000, -1.000000000000000000 ) ) ;
#79 = VERTEX_POINT ( 'NONE', #6 ) ;
#80 = EDGE_LOOP ( 'NONE', ( #97, #87, #192, #72 ) ) ;
#81 = DIRECTION ( 'NONE',  ( -1.000000000000000000, 0.000000000000000000, 0.000000000000000000 ) ) ;
#82 = VECTOR ( 'NONE', #78, 1000.000000000000000 ) ;
#83 = DIRECTION ( 'NONE',  ( -0.000000000000000000, -0.000000000000000000, -1.000000000000000000 ) ) ;
#84 = CC_DESIGN_SECURITY_CLASSIFICATION ( #210, ( #32 ) ) ;
#85 = CC_DESIGN_PERSON_AND_ORGANIZATION_ASSIGNMENT ( #19, #256, ( #270 ) ) ;
#86 = DIRECTION ( 'NONE',  ( 1.000000000000000000, 0.000000000000000000, 0.000000000000000000 ) ) ;
#87 = ORIENTED_EDGE ( 'NONE', *, *, #142, .F. ) ;
#88 = CARTESIAN_POINT ( 'NONE',  ( 8.000000000000000000, 9.797174393178825657E-16, 7.199999999999984190 ) ) ;
#89 = VECTOR ( 'NONE', #62, 1000.000000000000000 ) ;
#90 = CARTESIAN_POINT ( 'NONE',  ( 0.000000000000000000, 0.000000000000000000, 807.0000000000000000 ) ) ;
#91 = CIRCLE ( 'NONE', #203, 8.000000000000000000 ) ;
#92 = CC_DESIGN_DATE_AND_TIME_ASSIGNMENT ( #93, #65, ( #270 ) ) ;
#93 = DATE_AND_TIME ( #235, #216 ) ;
#94 = COORDINATED_UNIVERSAL_TIME_OFFSET ( 1, 0, .AHEAD. ) ;
#95 = APPROVAL_PERSON_ORGANIZATION ( #40, #145, #17 ) ;
#96 = EDGE_CURVE ( 'NONE', #14, #79, #13, .T. ) ;
#97 = ORIENTED_EDGE ( 'NONE', *, *, #225, .F. ) ;
#98 = PERSON_AND_ORGANIZATION ( #290, #43 ) ;
#99 = ORIENTED_EDGE ( 'NONE', *, *, #231, .T. ) ;
#100 = CYLINDRICAL_SURFACE ( 'NONE', #73, 8.000000000000000000 ) ;
#101 = EDGE_LOOP ( 'NONE', ( #284, #50 ) ) ;
#102 = ORIENTED_EDGE ( 'NONE', *, *, #170, .F. ) ;
#103 = CARTESIAN_POINT ( 'NONE',  ( 0.000000000000000000, 0.000000000000000000, 807.0000000000000000 ) ) ;
#104 = LOCAL_TIME ( 11, 23, 11.00000000000000000, #94 ) ;
#105 = ADVANCED_FACE ( 'NONE', ( #292 ), #155, .T. ) ;
#106 = DIRECTION ( 'NONE',  ( 0.000000000000000000, 0.000000000000000000, 1.000000000000000000 ) ) ;
#107 = CARTESIAN_POINT ( 'NONE',  ( 0.000000000000000000, 0.000000000000000000, 7.199999999999984190 ) ) ;
#108 = DIRECTION ( 'NONE',  ( 1.000000000000000000, 0.000000000000000000, 0.000000000000000000 ) ) ;
#109 = AXIS2_PLACEMENT_3D ( 'NONE', #182, #187, #70 ) ;
#110 = EDGE_LOOP ( 'NONE', ( #71, #253 ) ) ;
#111 = CARTESIAN_POINT ( 'NONE',  ( -8.200000000000001066, 1.004210375300829674E-15, 7.199999999999984190 ) ) ;
#112 = DIRECTION ( 'NONE',  ( 0.000000000000000000, 0.000000000000000000, 1.000000000000000000 ) ) ;
#113 = COORDINATED_UNIVERSAL_TIME_OFFSET ( 1, 0, .AHEAD. ) ;
#114 = ADVANCED_FACE ( 'NONE', ( #178 ), #246, .F. ) ;
#115 = CALENDAR_DATE ( 2022, 20, 6 ) ;
#116 = EDGE_LOOP ( 'NONE', ( #280, #121, #206, #55 ) ) ;
#117 = PERSON_AND_ORGANIZATION ( #290, #43 ) ;
#118 = EDGE_CURVE ( 'NONE', #49, #25, #130, .T. ) ;
#119 =( NAMED_UNIT ( * ) PLANE_ANGLE_UNIT ( ) SI_UNIT ( $, .RADIAN. ) );
#120 = PERSON_AND_ORGANIZATION_ROLE ( 'design_supplier' ) ;
#121 = ORIENTED_EDGE ( 'NONE', *, *, #151, .F. ) ;
#122 = APPROVAL_DATE_TIME ( #217, #145 ) ;
#123 = ORIENTED_EDGE ( 'NONE', *, *, #163, .T. ) ;
#124 = AXIS2_PLACEMENT_3D ( 'NONE', #28, #131, #146 ) ;
#125 = DIRECTION ( 'NONE',  ( 1.000000000000000000, 0.000000000000000000, -0.000000000000000000 ) ) ;
#126 = AXIS2_PLACEMENT_3D ( 'NONE', #111, #297, #195 ) ;
#127 = DIRECTION ( 'NONE',  ( -0.000000000000000000, -0.000000000000000000, -1.000000000000000000 ) ) ;
#128 = SHAPE_DEFINITION_REPRESENTATION ( #205, #29 ) ;
#129 = FACE_BOUND ( 'NONE', #194, .T. ) ;
#130 = CIRCLE ( 'NONE', #221, 8.200000000000001066 ) ;
#131 = DIRECTION ( 'NONE',  ( -0.000000000000000000, -0.000000000000000000, -1.000000000000000000 ) ) ;
#132 = DIRECTION ( 'NONE',  ( 1.000000000000000000, 0.000000000000000000, 0.000000000000000000 ) ) ;
#133 = PLANE ( 'NONE',  #186 ) ;
#134 = CARTESIAN_POINT ( 'NONE',  ( -11.00000000000000000, 0.000000000000000000, 0.000000000000000000 ) ) ;
#135 = CIRCLE ( 'NONE', #301, 0.1999999999999996503 ) ;
#136 = CIRCLE ( 'NONE', #69, 8.000000000000000000 ) ;
#137 = DIRECTION ( 'NONE',  ( -1.000000000000000000, 0.000000000000000000, 0.000000000000000000 ) ) ;
#138 = DIRECTION ( 'NONE',  ( 1.000000000000000000, 0.000000000000000000, 0.000000000000000000 ) ) ;
#139 = CALENDAR_DATE ( 2022, 20, 6 ) ;
#140 = PERSON_AND_ORGANIZATION_ROLE ( 'classification_officer' ) ;
#141 = DIRECTION ( 'NONE',  ( 0.000000000000000000, 0.000000000000000000, 1.000000000000000000 ) ) ;
#142 = EDGE_CURVE ( 'NONE', #14, #166, #91, .T. ) ;
#143 = DIRECTION ( 'NONE',  ( 1.000000000000000000, 0.000000000000000000, -0.000000000000000000 ) ) ;
#144 = COORDINATED_UNIVERSAL_TIME_OFFSET ( 1, 0, .AHEAD. ) ;
#145 = APPROVAL ( #228, 'NEURÈENÝ' ) ;
#146 = DIRECTION ( 'NONE',  ( -1.000000000000000000, 0.000000000000000000, 0.000000000000000000 ) ) ;
#147 = CIRCLE ( 'NONE', #12, 11.00000000000000000 ) ;
#148 = DIRECTION ( 'NONE',  ( -0.000000000000000000, -0.000000000000000000, -1.000000000000000000 ) ) ;
#149 = LOCAL_TIME ( 11, 23, 11.00000000000000000, #113 ) ;
#150 = CARTESIAN_POINT ( 'NONE',  ( -8.000000000000000000, 0.000000000000000000, 807.0000000000000000 ) ) ;
#151 = EDGE_CURVE ( 'NONE', #191, #79, #305, .T. ) ;
#152 = ORIENTED_EDGE ( 'NONE', *, *, #96, .F. ) ;
#153 = DIRECTION ( 'NONE',  ( -0.000000000000000000, -0.000000000000000000, -1.000000000000000000 ) ) ;
#154 = AXIS2_PLACEMENT_3D ( 'NONE', #243, #153, #81 ) ;
#155 = CYLINDRICAL_SURFACE ( 'NONE', #273, 11.00000000000000000 ) ;
#156 = DIRECTION ( 'NONE',  ( 1.000000000000000000, 0.000000000000000000, 0.000000000000000000 ) ) ;
#157 = CARTESIAN_POINT ( 'NONE',  ( 11.00000000000000000, 1.347111479062088405E-15, 7.000000000000000000 ) ) ;
#158 = DIRECTION ( 'NONE',  ( 0.000000000000000000, 0.000000000000000000, 1.000000000000000000 ) ) ;
#159 = APPROVAL ( #208, 'NEURÈENÝ' ) ;
#160 = COORDINATED_UNIVERSAL_TIME_OFFSET ( 1, 0, .AHEAD. ) ;
#161 = ORIENTED_EDGE ( 'NONE', *, *, #211, .F. ) ;
#162 = AXIS2_PLACEMENT_3D ( 'NONE', #8, #106, #125 ) ;
#163 = EDGE_CURVE ( 'NONE', #42, #193, #294, .T. ) ;
#164 =( NAMED_UNIT ( * ) SI_UNIT ( $, .STERADIAN. ) SOLID_ANGLE_UNIT ( ) );
#165 = APPLICATION_PROTOCOL_DEFINITION ( 'international standard', 'config_control_design', 1994, #66 ) ;
#166 = VERTEX_POINT ( 'NONE', #61 ) ;
#167 = CIRCLE ( 'NONE', #53, 11.00000000000000000 ) ;
#168 = CARTESIAN_POINT ( 'NONE',  ( -11.00000000000000000, 0.000000000000000000, 7.000000000000000000 ) ) ;
#169 = CYLINDRICAL_SURFACE ( 'NONE', #124, 11.00000000000000000 ) ;
#170 = EDGE_CURVE ( 'NONE', #79, #191, #136, .T. ) ;
#171 = FACE_OUTER_BOUND ( 'NONE', #285, .T. ) ;
#172 = AXIS2_PLACEMENT_3D ( 'NONE', #90, #39, #138 ) ;
#173 = ORIENTED_EDGE ( 'NONE', *, *, #286, .T. ) ;
#174 = VERTEX_POINT ( 'NONE', #244 ) ;
#175 = CARTESIAN_POINT ( 'NONE',  ( 0.000000000000000000, 0.000000000000000000, 7.000000000000000000 ) ) ;
#176 = ADVANCED_FACE ( 'NONE', ( #291 ), #299, .F. ) ;
#177 = AXIS2_PLACEMENT_3D ( 'NONE', #107, #158, #35 ) ;
#178 = FACE_OUTER_BOUND ( 'NONE', #295, .T. ) ;
#179 = CARTESIAN_POINT ( 'NONE',  ( -11.00000000000000000, 0.000000000000000000, 7.000000000000000000 ) ) ;
#180 = DIRECTION ( 'NONE',  ( 0.000000000000000000, 0.000000000000000000, 1.000000000000000000 ) ) ;
#181 = VECTOR ( 'NONE', #83, 1000.000000000000000 ) ;
#182 = CARTESIAN_POINT ( 'NONE',  ( 0.000000000000000000, 0.000000000000000000, 0.000000000000000000 ) ) ;
#183 = CIRCLE ( 'NONE', #51, 8.200000000000001066 ) ;
#184 = UNCERTAINTY_MEASURE_WITH_UNIT (LENGTH_MEASURE( 1.000000000000000082E-05 ), #234, 'distance_accuracy_value', 'NONE');
#185 = PERSON_AND_ORGANIZATION_ROLE ( 'creator' ) ;
#186 = AXIS2_PLACEMENT_3D ( 'NONE', #223, #141, #143 ) ;
#187 = DIRECTION ( 'NONE',  ( 0.000000000000000000, 0.000000000000000000, 1.000000000000000000 ) ) ;
#188 = ORIENTED_EDGE ( 'NONE', *, *, #286, .F. ) ;
#189 = CARTESIAN_POINT ( 'NONE',  ( 0.000000000000000000, 0.000000000000000000, 807.0000000000000000 ) ) ;
#190 = AXIS2_PLACEMENT_3D ( 'NONE', #269, #241, #59 ) ;
#191 = VERTEX_POINT ( 'NONE', #88 ) ;
#192 = ORIENTED_EDGE ( 'NONE', *, *, #96, .T. ) ;
#193 = VERTEX_POINT ( 'NONE', #134 ) ;
#194 = EDGE_LOOP ( 'NONE', ( #24, #52 ) ) ;
#195 = DIRECTION ( 'NONE',  ( -1.000000000000000000, 1.224646799147353207E-16, 0.000000000000000000 ) ) ;
#196 = CC_DESIGN_PERSON_AND_ORGANIZATION_ASSIGNMENT ( #117, #252, ( #248 ) ) ;
#197 = DIRECTION ( 'NONE',  ( -0.000000000000000000, -0.000000000000000000, -1.000000000000000000 ) ) ;
#198 = DIRECTION ( 'NONE',  ( 1.000000000000000000, 0.000000000000000000, 0.000000000000000000 ) ) ;
#199 = ORIENTED_EDGE ( 'NONE', *, *, #1, .T. ) ;
#200 = APPROVAL ( #41, 'NEURÈENÝ' ) ;
#201 = CYLINDRICAL_SURFACE ( 'NONE', #154, 8.000000000000000000 ) ;
#202 = DIRECTION ( 'NONE',  ( 0.000000000000000000, 0.000000000000000000, 1.000000000000000000 ) ) ;
#203 = AXIS2_PLACEMENT_3D ( 'NONE', #249, #202, #198 ) ;
#204 = DATE_AND_TIME ( #139, #281 ) ;
#205 = PRODUCT_DEFINITION_SHAPE ( 'NONE', 'NONE',  #270 ) ;
#206 = ORIENTED_EDGE ( 'NONE', *, *, #20, .T. ) ;
#207 = CC_DESIGN_PERSON_AND_ORGANIZATION_ASSIGNMENT ( #22, #185, ( #32 ) ) ;
#208 = APPROVAL_STATUS ( 'not_yet_approved' ) ;
#209 = AXIS2_PLACEMENT_3D ( 'NONE', #103, #287, #289 ) ;
#210 = SECURITY_CLASSIFICATION ( '', '', #306 ) ;
#211 = EDGE_CURVE ( 'NONE', #42, #212, #60, .T. ) ;
#212 = VERTEX_POINT ( 'NONE', #157 ) ;
#213 = CLOSED_SHELL ( 'NONE', ( #114, #33, #105, #7, #23, #293, #262, #38, #176 ) ) ;
#214 = DIRECTION ( 'NONE',  ( -1.000000000000000000, 0.000000000000000000, 0.000000000000000000 ) ) ;
#215 = CC_DESIGN_DATE_AND_TIME_ASSIGNMENT ( #204, #250, ( #210 ) ) ;
#216 = LOCAL_TIME ( 11, 23, 11.00000000000000000, #144 ) ;
#217 = DATE_AND_TIME ( #3, #149 ) ;
#218 = DIRECTION ( 'NONE',  ( 1.000000000000000000, 0.000000000000000000, 0.000000000000000000 ) ) ;
#219 = PLANE ( 'NONE',  #162 ) ;
#220 = DIRECTION ( 'NONE',  ( 0.000000000000000000, 0.000000000000000000, -1.000000000000000000 ) ) ;
#221 = AXIS2_PLACEMENT_3D ( 'NONE', #296, #31, #108 ) ;
#222 = DIRECTION ( 'NONE',  ( -0.000000000000000000, -0.000000000000000000, -1.000000000000000000 ) ) ;
#223 = CARTESIAN_POINT ( 'NONE',  ( 0.000000000000000000, 0.000000000000000000, 0.000000000000000000 ) ) ;
#224 = CARTESIAN_POINT ( 'NONE',  ( 0.000000000000000000, 0.000000000000000000, 7.000000000000000000 ) ) ;
#225 = EDGE_CURVE ( 'NONE', #166, #191, #36, .T. ) ;
#226 = CARTESIAN_POINT ( 'NONE',  ( 8.000000000000000000, 9.797174393178825657E-16, 807.0000000000000000 ) ) ;
#227 = FACE_OUTER_BOUND ( 'NONE', #80, .T. ) ;
#228 = APPROVAL_STATUS ( 'not_yet_approved' ) ;
#229 = CIRCLE ( 'NONE', #190, 11.00000000000000000 ) ;
#230 = APPROVAL_DATE_TIME ( #46, #159 ) ;
#231 = EDGE_CURVE ( 'NONE', #79, #49, #4, .T. ) ;
#232 = ORIENTED_EDGE ( 'NONE', *, *, #225, .T. ) ;
#233 = PERSON_AND_ORGANIZATION ( #290, #43 ) ;
#234 =( LENGTH_UNIT ( ) NAMED_UNIT ( * ) SI_UNIT ( .MILLI., .METRE. ) );
#235 = CALENDAR_DATE ( 2022, 20, 6 ) ;
#236 = EDGE_LOOP ( 'NONE', ( #188, #67 ) ) ;
#237 = CARTESIAN_POINT ( 'NONE',  ( 0.000000000000000000, 0.000000000000000000, 7.000000000000000000 ) ) ;
#238 = DIRECTION ( 'NONE',  ( 0.000000000000000000, 0.000000000000000000, 1.000000000000000000 ) ) ;
#239 = ORIENTED_EDGE ( 'NONE', *, *, #251, .F. ) ;
#240 = ORIENTED_EDGE ( 'NONE', *, *, #1, .F. ) ;
#241 = DIRECTION ( 'NONE',  ( 0.000000000000000000, 0.000000000000000000, 1.000000000000000000 ) ) ;
#242 = APPROVAL_PERSON_ORGANIZATION ( #302, #200, #68 ) ;
#243 = CARTESIAN_POINT ( 'NONE',  ( 0.000000000000000000, 0.000000000000000000, 807.0000000000000000 ) ) ;
#244 = CARTESIAN_POINT ( 'NONE',  ( 11.00000000000000000, 1.347111479062088405E-15, 0.000000000000000000 ) ) ;
#245 = APPLICATION_CONTEXT ( 'configuration controlled 3d designs of mechanical parts and assemblies' ) ;
#246 = TOROIDAL_SURFACE ( 'NONE', #57, 8.200000000000001066, 0.2000000000000000111 ) ;
#247 = CARTESIAN_POINT ( 'NONE',  ( 0.000000000000000000, 0.000000000000000000, 7.199999999999984190 ) ) ;
#248 = PRODUCT ( '5e05', '5e05', '', ( #276 ) ) ;
#249 = CARTESIAN_POINT ( 'NONE',  ( 0.000000000000000000, 0.000000000000000000, 807.0000000000000000 ) ) ;
#250 = DATE_TIME_ROLE ( 'classification_date' ) ;
#251 = EDGE_CURVE ( 'NONE', #166, #14, #288, .T. ) ;
#252 = PERSON_AND_ORGANIZATION_ROLE ( 'design_owner' ) ;
#253 = ORIENTED_EDGE ( 'NONE', *, *, #251, .T. ) ;
#254 = AXIS2_PLACEMENT_3D ( 'NONE', #15, #63, #86 ) ;
#255 = DATE_AND_TIME ( #115, #104 ) ;
#256 = PERSON_AND_ORGANIZATION_ROLE ( 'creator' ) ;
#257 = CC_DESIGN_PERSON_AND_ORGANIZATION_ASSIGNMENT ( #98, #140, ( #210 ) ) ;
#258 = ORIENTED_EDGE ( 'NONE', *, *, #58, .F. ) ;
#259 = APPLICATION_PROTOCOL_DEFINITION ( 'international standard', 'config_control_design', 1994, #245 ) ;
#260 = ORIENTED_EDGE ( 'NONE', *, *, #163, .F. ) ;
#261 = DIRECTION ( 'NONE',  ( 1.000000000000000000, 0.000000000000000000, 0.000000000000000000 ) ) ;
#262 = ADVANCED_FACE ( 'NONE', ( #227 ), #201, .T. ) ;
#263 = FACE_OUTER_BOUND ( 'NONE', #30, .T. ) ;
#264 = LINE ( 'NONE', #268, #82 ) ;
#265 =( GEOMETRIC_REPRESENTATION_CONTEXT ( 3 ) GLOBAL_UNCERTAINTY_ASSIGNED_CONTEXT ( ( #184 ) ) GLOBAL_UNIT_ASSIGNED_CONTEXT ( ( #234, #119, #164 ) ) REPRESENTATION_CONTEXT ( 'NONE', 'WORKASPACE' ) );
#266 = DESIGN_CONTEXT ( 'detailed design', #245, 'design' ) ;
#267 = ORIENTED_EDGE ( 'NONE', *, *, #283, .T. ) ;
#268 = CARTESIAN_POINT ( 'NONE',  ( 11.00000000000000000, 1.347111479062088405E-15, 7.000000000000000000 ) ) ;
#269 = CARTESIAN_POINT ( 'NONE',  ( 0.000000000000000000, 0.000000000000000000, 0.000000000000000000 ) ) ;
#270 = PRODUCT_DEFINITION ( 'NEZNÁMÝ', '', #32, #266 ) ;
#271 = CARTESIAN_POINT ( 'NONE',  ( 0.000000000000000000, 0.000000000000000000, 7.199999999999984190 ) ) ;
#272 = DIRECTION ( 'NONE',  ( 0.000000000000000000, 0.000000000000000000, 1.000000000000000000 ) ) ;
#273 = AXIS2_PLACEMENT_3D ( 'NONE', #224, #222, #137 ) ;
#274 = DIRECTION ( 'NONE',  ( 1.000000000000000000, 0.000000000000000000, 0.000000000000000000 ) ) ;
#275 = DIRECTION ( 'NONE',  ( 1.000000000000000000, 0.000000000000000000, 0.000000000000000000 ) ) ;
#276 = MECHANICAL_CONTEXT ( 'NONE', #66, 'mechanical' ) ;
#277 = CC_DESIGN_APPROVAL ( #159, ( #270 ) ) ;
#278 = CALENDAR_DATE ( 2022, 20, 6 ) ;
#279 = ORIENTED_EDGE ( 'NONE', *, *, #151, .T. ) ;
#280 = ORIENTED_EDGE ( 'NONE', *, *, #231, .F. ) ;
#281 = LOCAL_TIME ( 11, 23, 11.00000000000000000, #160 ) ;
#282 = PLANE ( 'NONE',  #209 ) ;
#283 = EDGE_CURVE ( 'NONE', #174, #193, #167, .T. ) ;
#284 = ORIENTED_EDGE ( 'NONE', *, *, #211, .T. ) ;
#285 = EDGE_LOOP ( 'NONE', ( #240, #161, #123, #173 ) ) ;
#286 = EDGE_CURVE ( 'NONE', #193, #174, #229, .T. ) ;
#287 = DIRECTION ( 'NONE',  ( 0.000000000000000000, 0.000000000000000000, 1.000000000000000000 ) ) ;
#288 = CIRCLE ( 'NONE', #172, 8.000000000000000000 ) ;
#289 = DIRECTION ( 'NONE',  ( 1.000000000000000000, 0.000000000000000000, -0.000000000000000000 ) ) ;
#290 = PERSON ( 'NEURÈENÝ', 'NEURÈENÝ', 'NEURÈENÝ', ('NEURÈENÝ'), ('NEURÈENÝ'), ('NEURÈENÝ') ) ;
#291 = FACE_OUTER_BOUND ( 'NONE', #116, .T. ) ;
#292 = FACE_OUTER_BOUND ( 'NONE', #2, .T. ) ;
#293 = ADVANCED_FACE ( 'NONE', ( #34 ), #133, .F. ) ;
#294 = LINE ( 'NONE', #179, #181 ) ;
#295 = EDGE_LOOP ( 'NONE', ( #102, #99, #303, #307 ) ) ;
#296 = CARTESIAN_POINT ( 'NONE',  ( 0.000000000000000000, 0.000000000000000000, 7.000000000000000000 ) ) ;
#297 = DIRECTION ( 'NONE',  ( 1.224646799147353207E-16, 1.000000000000000000, -0.000000000000000000 ) ) ;
#298 = PRODUCT_RELATED_PRODUCT_CATEGORY ( 'detail', '', ( #248 ) ) ;
#299 = TOROIDAL_SURFACE ( 'NONE', #177, 8.200000000000001066, 0.2000000000000000111 ) ;
#300 = COORDINATED_UNIVERSAL_TIME_OFFSET ( 1, 0, .AHEAD. ) ;
#301 = AXIS2_PLACEMENT_3D ( 'NONE', #77, #26, #220 ) ;
#302 = PERSON_AND_ORGANIZATION ( #290, #43 ) ;
#303 = ORIENTED_EDGE ( 'NONE', *, *, #76, .F. ) ;
#304 = CC_DESIGN_APPROVAL ( #200, ( #32 ) ) ;
#305 = CIRCLE ( 'NONE', #254, 8.000000000000000000 ) ;
#306 = SECURITY_CLASSIFICATION_LEVEL ( 'unclassified' ) ;
#307 = ORIENTED_EDGE ( 'NONE', *, *, #20, .F. ) ;
ENDSEC;
END-ISO-10303-21;
